PrimaNota.ru - самый крупный в мире бесплатный архив песенных текстов, аккордов, табулатур и нот


Dayglo Abortions - Used To Be In Love - текст песни, таба, видео

Регистрация Запомнить меня
Войти через:  Facebook Google Twitter Vk Yandex Mail.ru

Dayglo Abortions - Used To Be In Love - текст песни, таба, видео

Печатать
Просмотров: 114
This tab may require you to do some string bending, hammering, palm muting, pick 
or other guitar techniques you will be able to figure out by listening to the song. You may 
have to play a chord shown more than once in sequence. This tab are in standard guitar tuning.

You can find more great punk/oi tabs on my site:
BLACKJACKAL.PHPNET.US

Main Riff:

e|---------|
B|---------|
G|---------|
D|---------|
A|-7-8-5-6-|
E|-5-6-3-4-|

Verse:

e|---|
B|---|
G|---|
D|---|
A|-7-|
E|-5-|

Chorus:

e|-----    ---------    -|
B|-----    ---------    -|
G|-----    ---------    -|
D|-7--- x1 --------- x2 -|
A|-5-8-    -7-8-5-6-    -|
E|---6-    -5-6-3-4-    -|

Solo:

e|-------------------    -------------|
B|-------------------    -------------|
G|-------------------    -------------|
D|------------------- x3 -------------|
A|-----------------3-    -----------3-|
E|-5-6-3-4-5-6-5-3---    -5-6-3-4-5---|
Добавлено: 11.07.2012
Другие материалы по этой песне:
  • Аккорды и текст

Страница создана 09.04.2012
http://primanota.ru/dayglo-abortions/used-to-be-in-love-chords.htm
Привет, Гость.
Предлагаем пройти революционный курс по гитаре.
Подарок от PrimaNota.Ru, забирай!