PrimaNota.ru - самый крупный в мире бесплатный архив песенных текстов, аккордов, табулатур и нот


Dayglo Abortions - Squeegee Night In Canada - текст песни, таба, видео

Регистрация Запомнить меня
Войти через:  Facebook Google Twitter Vk Yandex Mail.ru

Dayglo Abortions - Squeegee Night In Canada - текст песни, таба, видео

Печатать
Просмотров: 90
from death race 2000

intro
|------------------------------------------------------|
|------------------------------------------------------|
|------------------------------------------------------|
|-------------------------------------------------2----|
|-0-0---------1-1-0-00-00-0-00-00-0-0---------1-1-0----|
|-----0-0-1-1-------------------------0-0-1-1----------|


riff 1
|----------------------------------------------|
|----------------------------------------------|
|----------------------------------------------|
|-------------55----55----77----77---101010-9--|
|-77--5-77--5-33--0-33--0-55--0-55--0-8-8-8-7--|
|-55--3-55--3----------------------------------|


intro
riff 1
intro


riff 2
|-------------------------------------|
|-------------------------------------|
|-------------------------------------|
|-------5-----------------------------|
|-7-----3-----5-----7--77-55-7--77-55-|
|-5-----------3-----5--55-33-5--55-33-|


intro


riff 3
|------------------------------------------------------------------|
|------------------------------------------------------------------|
|------------------------------------------------------------------|
|----------5--------3-------------------------5--------3-----------|
|-5-777777---777775-1--3--2--5-66-66-5-777777---777775-1--3--2--6--|
|----------------------1--0--3-44-44----------------------1--0--4--|


riff 1
intro
riff 1
intro
riff 2


end
|-----------|
|-----------|
|-----------|
|-----------|
|-7-7-5-7---|
|-5-5-3-5---|
Добавлено: 27.06.2013
Другие материалы по этой песне:
  • Аккорды и текст

Страница создана 13.06.2012
http://primanota.ru/dayglo-abortions/squeegee-night-in-canada-chords.htm
Привет, Гость.
Предлагаем пройти революционный курс по гитаре.
Подарок от PrimaNota.Ru, забирай!