PrimaNota.ru - самый крупный в мире бесплатный архив песенных текстов, аккордов, табулатур и нот


Dayglo Abortions - Drunk On Power - текст песни, таба, видео

Регистрация Запомнить меня
Войти через:  Facebook Google Twitter Vk Yandex Mail.ru

Dayglo Abortions - Drunk On Power - текст песни, таба, видео

Печатать
Просмотров: 83
from death race 2000

intro
|-------------|
|-------------|
|-------------|
|-4-----7-----|
|-2-5-5-5-7-7-|
|---3-3---5-5-|


riff 1
|---------------------------------|
|---------------------------------|
|---------------------------------|
|-4-------7-------4-------7-------|
|-2-55-55-5-77-77-2-55-55-5-7-7-7-|
|---33-33---55-55---33-33---5-5-5-|


riff 2
|------------------------------------------------------------------|
|------------------------------------------------------------------|
|------------------------------------------------------------------|
|----------------------------------------------------------4-------|
|-22222222222222220000000000000000--------00000000----2222-2-55-55-|
|---------------------------------33333333--------3333-------33-33-|


riff 1
riff 2
riff 1


riff 3
|-------------------------------|
|-------------------------------|
|-------------------------------|
|-4-44-44-2-22-22---------------|
|-2-22-22-0-00-00-4-7-4-2-22-22-|
|-----------------2-5-2-0-00-00-|


riff 1
Добавлено: 03.09.2013
Другие материалы по этой песне:
  • Аккорды и текст

Страница создана 28.02.2012
http://primanota.ru/dayglo-abortions/drunk-on-power-chords.htm
Привет, Гость.
Предлагаем пройти революционный курс по гитаре.
Подарок от PrimaNota.Ru, забирай!