PrimaNota.ru - самый крупный в мире бесплатный архив песенных текстов, аккордов, табулатур и нот


Dayglo Abortions - Brick Shithouse Bouncers - таба, видео

Регистрация Запомнить меня
Войти через:  Facebook Google Twitter Vk Yandex Mail.ru

Dayglo Abortions - Brick Shithouse Bouncers - таба, видео

Печатать
Просмотров: 81
from little man in the canoe

riff 1
|-------------------------------------------------|-------------------------|
|-------------------------------------------------|-------------------------|
|-------------------------------------------------|-------------------------|
|-------3-3-3-------------------6-6-6-------------|-------------------------|
|-------1-1-1-------7-7-6-------4-4-4-5-5-5-8-7-6-|-2-----2-----2-----2-----|
|-0-0-0-------0-0-0-5-5-4-3-3-3-------3-3-3-6-5-4-|-0-----0-----0-----0-----|


riff 2
|------------------|-------------------|------------------|-------------------|
|------------------|-------------------|------------------|-------------------|
|------------------|-------------------|------------------|-------------------|
|-4----------------|-4--5--7--9--7--5--|-5----------------|-------------------|
|-2----------------|-2--3--5--7--5--3--|-3----------------|-7--8--9-10--9--8--|
|---00000000000000-|-------------------|---55555555555555-|-5--6--7--8--7--6--|


riff 3
|-----------------------------------------------|
|-----------------------------------------------|
|-----------------------------------------------|
|-------------8-8-7-77-77-7-5-3-2-22-22-2-22-22-|
|-3-33-33-3-3-6-6-5-55-55-5-3-1-0-00-00-0-00-00-|
|-1-11-11-1-1-----------------------------------|


riff 4
|-----------------|--------------|
|-----------------|--------------|
|-----------------|--------------|
|-----------------|--------------|
|-55555555555-----|-5-3-1---3----|
|-33333333333-0-5-|-------0-1----|
Добавлено: 26.06.2013
Другие материалы по этой песне:
  • Аккорды и текст

Страница создана 26.06.2013
http://primanota.ru/dayglo-abortions/brick-shithouse-bouncers-chords.htm
Привет, Гость.
Предлагаем пройти революционный курс по гитаре.
Подарок от PrimaNota.Ru, забирай!