PrimaNota.ru - самый крупный в мире бесплатный архив песенных текстов, аккордов, табулатур и нот


Dayglo Abortions - Big Michel - таба, видео

Регистрация Запомнить меня
Войти через:  Facebook Google Twitter Vk Yandex Mail.ru

Dayglo Abortions - Big Michel - таба, видео

Печатать
Просмотров: 98
from little man in the canoe

riff 1
|----------------------------------------------------------------------------------|
|----------------------------------------------------------------------------------|
|----------------------------------------------------------------------------------|
|----------------------------------------------------------------------------------|
|-8---7-7-----5-4-2--------9-8--7-7-----5-4-8--7-7-----5-4-8--7-7-----5-4-2--------|
|-6---5-5h6p5-3-2-0-000000-7-6--5-5h6p5-3-2-6--5-5h6p5-3-2-6--5-5h6p5-3-2-0-000000-|


riff 2
|---------------------------------------------------------------------------------------|
|---------------------------------------------------------------------------------------|
|---------------------------------------------------------------------------------------|
|---------------------------------------------------------------------------------------|
|-2-22-4-44-5-55-7-77-8-888888-78888888-8888-7777-5555-4444-2-2222-8-7------5-7-8-7-5-4-|
|-0-00-2-22-3-33-5-55-6-666666-56666666-6666-5555-3333-2222-0-0000-6-5hp6p5-3-5-6-5-3-2-|


riff 3
|-------------------------------------------------------------|-------------|
|-------------------------------------------------------------|-------------|
|-------------------------------------------------------------|-------------|
|---------3-33-3333-------------------------------------------|-------------|
|-2-22222-1-11-1111-5--7--8--4--2-22222-5-55-5555-8--7--5--7--|-------------|
|-0-00000-----------3--5--6--2--0-00000-3-33-3333-6--5--3--5--|-000000000---|


riff 4
|--------------------|--------|
|--------------------|--------|
|--------------------|--------|
|--------------------|--------|
|-4--2---------------|-7-7----|
|-2--0--0-0--000-0-0-|-5-5----|


riff 5
|-----------------|----------------------------|
|-----------------|----------------------------|
|-----------------|----------------------------|
|---------5-54-42-|---------5-55-55---------9--|
|-4-44-44-3-32-20-|-4-44-44-3-33-33-7-77-77-7--|
|-2-22-22---------|-2-22-22---------5-55-55----|

Добавлено: 06.11.2013
Другие материалы по этой песне:
  • Аккорды и текст

Страница создана 06.11.2013
http://primanota.ru/dayglo-abortions/big-michel-chords.htm
Привет, Гость.
Предлагаем пройти революционный курс по гитаре.
Подарок от PrimaNota.Ru, забирай!