PrimaNota.ru - самый крупный в мире бесплатный архив песенных текстов, аккордов, табулатур и нот


Dayglo Abortions - Bedtime Story - текст песни, таба, видео

Регистрация Запомнить меня
Войти через:  Facebook Google Twitter Vk Yandex Mail.ru

Dayglo Abortions - Bedtime Story - текст песни, таба, видео

Печатать
Просмотров: 144
-------------------------------------------------------------------------------
Bedtime Story - Dayglo Abortions
Feed Us A Fetus
-------------------------------------------------------------------------------
Tabbed by: axeslash
Email: holmzito@yahoo.com

Tuning: Both guitars Standard Tuning

Guitar 1:
e|--------------------------------------------------------------------------|
B|--------------------------------------------------------------------------|
G|--------------------------------------------------------------------------|
D|-4-4-4-4-4-4-4-4-4-4-4-4-4-4-4-4-4-4-4-4-4-4-4-4-4-4-4-4-4-4-4-4-4--------|
A|-4-4-4-4-4-4-4-4-4-4-4-4-4-4-4-4-4-4-4-4-4-4-4-4-4-4-4-4-4-4-4-4-4--------|
E|-2-2-2-2-2-2-2-2-2-2-2-2-2-2-2-2-2-2-2-2-2-2-2-2-2-2-2-2-2-2-2-2-2--------|
Guitar 2:
e|-18-18-18-18-18-18-18-18-18-18-18-18-18-18-18-18-18-18-18-18-18-18--------|
B|--------------------------------------------------------------------------|
G|--------------------------------------------------------------------------|
D|--------------------------------------------------------------------------|
A|--------------------------------------------------------------------------|
E|--------------------------------------------------------------------------|

At this point both guitars play the same thing through the rest of the song

e|--------------------------------------------------------------------------------------|
B|--------------------------------------------------------------------------------------|
G|--------------------------------------------------------------------------------------|
D|--------------------------------------------------------------------------------------|
A|-5--4------5-----------5-------7----------------5--4------5-----------5-------7-------|
E|--------------4-----------5-------7----2---------------------4-----------5-------7----|

e|---------------------------------------------------------------------------------------|
B|---------------------------------------------------------------------------------------|
G|---------------------------------------------------------------------------------------|
D|---------------------------------------------------------------------------------------|
A|-------------------5--5-5-4--4-4-4--4--4-4-4-5--5-5--------------------5-------7-------|
E|-2--2-2-2--2-2-2-2----------------------------------4--4-4-4--4-----------5------7-----|
  [X--X-X-X--X-X-X-X-X--X-X-X--X-X-X--X--X-X-X-X--X-X-X--X-X-X]

e|-----------------------------------------------------------------------------|
B|-----------------------------------------------------------------------------|
G|-------------------------------------------------------------7-------9-------|
D|-------------------------------------------------------------7--7----9--9----|
A|-------------------5--5-5-4--4-4-4--4--4-4-4-5--5-5----------5--7----7--9----|
E|-2--2-2-2--2-2-2-2----------------------------------4-----------5-------7----|
  [X--X-X-X--X-X-X-X-X--X-X-X--X-X-X--X--X-X-X-X--X-X]

e|--------------------------------------------------------------|
B|--------------------------------------------------------------|
G|-------------7--6--X--6-6-6-7-----------------7-------9-------|
D|-4--X--4-4-4-7--6--X--6-6-6-7--6--X--6-6-6----7--7----9--9----|
A|-4--X--4-4-4-5--4--X--4-4-4-5--6--X--6-6-6----5--7----7--9----|
E|-2--X--2-2-2-------------------4--X--4-4-4-------5-------7----| x3

e|--------------------------------------------------------------------------|
B|--------------------------------------------------------------------------|
G|-------------7--6--X--6-6-6-7-----------------7-------9-------------------|
D|-4--X--4-4-4-7--6--X--6-6-6-7--6--X--6-6-6----7--7----9--9----------------|
A|-4--X--4-4-4-5--4--X--4-4-4-5--6--X--6-6-6----5--7----7--9----------------|
E|-2--X--2-2-2-------------------4--X--4-4-4-------5-------7----------------|

e|-------------------------------|
B|-------------------------------|
G|-7-----------------------------|
D|-7--7--4-4-4-4-4-4-4-4-4-4-4-4-|
A|-5--7--4-4-4-4-4-4-4-4-4-4-4-4-|
E|----5--2-2-2-2-2-2-2-2-2-2-2-2-| x8

e|-------------------------------------------------------------------|
B|-------------------------------------------------------------------|
G|-7-----------------------------------------------------------------|
D|-7--6--7-7-7-7-7-7-7-7-6-6-6-6-7-7-6-6-4-4-4-4-4-4-4-4-9--8--7--6--|
A|-5--6--7-7-7-7-7-7-7-7-6-6-6-6-7-7-6-6-4-4-4-4-4-4-4-4-9--8--7--6--|
E|----4--5-5-5-5-5-5-5-5-4-4-4-4-5-5-4-4-2-2-2-2-2-2-2-2-7--6--5--4--|

e|-------------------------------------------------|
B|-------------------------------------------------|
G|-------------------------7-7---------------------|
D|-7-7-7-7-7-7-7-7-6-6-6-6-7-7-6-6-4-4-4-4-4-4-4-4-|
A|-7-7-7-7-7-7-7-7-6-6-6-6-5-5-6-6-4-4-4-4-4-4-4-4-|
E|-5-5-5-5-5-5-5-5-4-4-4-4-----4-4-2-2-2-2-2-2-2-2-|

e|-------------------------------|
B|-------------------------------|
G|-7-----------------------------|
D|-7--7--4-4-4-4-4-4-4-4-4-4-4-4-|
A|-5--7--4-4-4-4-4-4-4-4-4-4-4-4-|
E|----5--2-2-2-2-2-2-2-2-2-2-2-2-| x8

e|-------------------------------------------------------------------|
B|-------------------------------------------------------------------|
G|-7-----------------------------------------------------------------|
D|-7--6--7-7-7-7-7-7-7-7-6-6-6-6-7-7-6-6-4-4-4-4-4-4-4-4-9--8--7--6--|
A|-5--6--7-7-7-7-7-7-7-7-6-6-6-6-7-7-6-6-4-4-4-4-4-4-4-4-9--8--7--6--|
E|----4--5-5-5-5-5-5-5-5-4-4-4-4-5-5-4-4-2-2-2-2-2-2-2-2-7--6--5--4--|

e|-------------------------------------------------|
B|-------------------------------------------------|
G|-------------------------7-7---------------------|
D|-7-7-7-7-7-7-7-7-6-6-6-6-7-7-6-6-4-4-4-4-4-4-4-4-|
A|-7-7-7-7-7-7-7-7-6-6-6-6-5-5-6-6-4-4-4-4-4-4-4-4-|
E|-5-5-5-5-5-5-5-5-4-4-4-4-----4-4-2-2-2-2-2-2-2-2-|

e|-------------------------------|
B|-------------------------------|
G|-7-----------------------------|
D|-7--7--4-4-4-4-4-4-4-4-4-4-4-4-|
A|-5--7--4-4-4-4-4-4-4-4-4-4-4-4-|
E|----5--2-2-2-2-2-2-2-2-2-2-2-2-| x3

e|------------------------------------------------|
B|------------------------------------------------|
G|-7----------------------------------------------|
D|-7--7--5----------------2----4-4----------------|
A|-5--7--5----------------2----4-4----------------|
E|----5--3----------------0----2-2----------------|

e|----------------------------------------------|
B|----------------------------------------------|
G|----------------------------------------------|
D|-5----------------2----4-4--------------------|
A|-5----------------2----4-4--------------------|
E|-3----------------0----2-2----////14~~~~~\\\\-|

e|----------------------------------------------------------------|
B|----------------------------------------------------------------|
G|----------------------------------------------------------------|
D|-5----------------2----4-4----------------5----------------2----|
A|-5----------------2----4-4----------------5----------------2----|
E|-3----------------0----2-2----------------3----------------0----|

e|-----------------------------------------------------------------|
B|-----------------------------------------------------------------|
G|-------------7--6--X--6-6-6-7-----------------7-------9----------|
D|-4--X--4-4-4-7--6--X--6-6-6-7--6--X--6-6-6----7--7----9--9----4--|
A|-4--X--4-4-4-5--4--X--4-4-4-5--6--X--6-6-6----5--7----7--9----4--|
E|-2--X--2-2-2-------------------4--X--4-4-4-------5-------7----2--|

The outro is random wankery, so you should take this opportunity
to deploy your star power and get double points.


|[X] palm mute
| /  slide up
| \  slide down
| h  hammer-on
| p  pull-off
| ~  vibrato
| +  harmonic
| x  Mute note
===============================================================================
Добавлено: 25.03.2012
Другие материалы по этой песне:
  • Аккорды и текст

Страница создана 11.03.2012
http://primanota.ru/dayglo-abortions/bedtime-story-chords.htm
Привет, Гость.
Предлагаем пройти революционный курс по гитаре.
Подарок от PrimaNota.Ru, забирай!