PrimaNota.ru - самый крупный в мире бесплатный архив песенных текстов, аккордов, табулатур и нот


Daybreak Embrace - Sanctuary - таба, видео

Регистрация Запомнить меня
Войти через:  Facebook Google Twitter Vk Yandex Mail.ru

Daybreak Embrace - Sanctuary - таба, видео

Печатать
Просмотров: 214
DAYBREAK EMBRACE - SANCTUARY 
Dropped C# Tuning (Db, Ab, Db, Gb, Bb, Eb)

Visit their official website: http://daybreakembrace.com/

Special Thanks to Keny Figueroa (Rhythm Guitar of Daybreak Embrace) 
for taking the time to tab this song out for all of us to use. 
This tab should be 100% accurate because I 
got it from the band. These guys are amazing so 
lets spread the word about them!!!! 

/ - SLIDE UP 
* - PALM MUTE 

INTRO RIFF (CLEAN AND DISTORTION - OUTRO "ONE MORE DAY...") 
(GUITAR 1) 
Eb||-------------------------------------------------------------|| 
Bb||-------------------------------------------------------------|| 
Gb||*--------10----9----------5---7---------9-----7-----9---7---*|| 
Db||*-----10----10---10-----5---5---5-----7---7-----7-----7---7-*|| 
Ab||----8-----------------5-------------0------------------------|| 
Db||--8-----------------5-------------0---------0-----0----------|| 

(GUITAR 1 LAST PASS) 
Eb|---------------------------------------| 
Bb|---------------------------------------| 
Gb|---------10----9----------5---7--------| 
Db|------10----10---10-----5---5---5-0----| 
Ab|----8-----------------5-----------0----|
Db|--8-----------------5-------------0----|

(GUITR 2 INTRO LEAD [2ND VERSE LEAD]) 
Eb|-----------------| 
Bb|-13---13/15------| 
Gb|-------------14--| 
Db|-----------------| 
Ab|-----------------| 
Db|-----------------|

 VERSE 
(GUITAR 1 MAIN RIFF) 
Eb||------------------------------------------------------------|| 
Bb||-----3-----1-----3----6-----5-----8---10-----8-----8--------|| 
Gb||*------0-----0----------0-----0----------0-----0-----------*|| 
Db||*----------------------------------------------------------*|| 
Ab||---1-----1-----1---5------5-----5---8------8-----8----------|| 
Db||------------------------------------------------------------|| 

(GUITAR 1 LAST PASS) 
Eb|--------------------------------------------------------------| 
Bb|----3-----1-----3----6-----5-----5---3-----3------3-----3---3-| 
Gb|------0-----0----------0-----0---------0-----0------0-----0-0-| 
Db|--------------------------------------------------------------| 
Ab|--1-----1-----1---5------5-----5---3-----3------3-----3-----3-| 
Db|--------------------------------------------------------------|

(GUITAR 2) 
Eb||------------------------------------------|| 
Bb||------------------------------------------|| 
Gb||*-10--10--10-12-10--10--10--10-12-10--9--*|| 
Db||*-12--12--12-12-12--12--12--12-12-12-10--*|| 
Ab||------------------------------------------|| 
Db||------------------------------------------||

(GUITAR 3 - 2ND HALF OF VERSE) 
Eb|-------------------------------------------------------------------------| 
Bb|-------------------------------------------------------------------------| 
Gb|-------------------------------------------------------------------------| 
Db|--3--3--3--3--3--3--3--3--7--7--7--7--7--7--7--7--10-10-10-10-10-10-10-10| 
Ab|--1--1--1--1--1--1--1--1--5--5--5--5--5--5--5--5--8--8--8--8--8--8--8--8-| 
Db|-------------------------------------------------------------------------| 
     *********************************************************************** 

(GUITAR 3 - 2ND HALF OF VERSE cont'd) 
Eb|--------------------------| 
Bb|--------------------------| 
Gb|--------------------------| 
Db|-10-10-10-10-10-10-10-10--| 
Ab|-8--8--8--8--8--8--8--8---| 
Db|--------------------------| 
    ************************

(GUITAR 3 - 2ND HALF OF VERSE LAST PASS) 
Eb|-------------------------------------------------------------------------| 
Bb|-------------------------------------------------------------------------| 
Gb|-------------------------------------------------------------------------| 
Db|--3--3--3--3--3--3--3--3--7--7--7--7--7--7--7--7--5--5--5--5--5--5--5--5-| 
Ab|--1--1--1--1--1--1--1--1--5--5--5--5--5--5--5--5--3--3--3--3--3--3--3--3-| 
Db|-------------------------------------------------------------------------| 
     ****************************************************     *     **** 

(GUITAR 3 - 2ND HALF OF VERSE LAST PASS cont'd) 
Eb|----------------| 
Bb|----------------| 
Gb|----------------| 
Db|-5--5--5--5--5--| 
Ab|-3--3--3--3--3--| 
Db|----------------| 
    ****     *

CHORUS 

(MAIN RIFF) 
Eb||------------------------------------------------------------------------| 
Bb||------------------------------------------------------------------------| 
Gb||*---------10--------9--9-----------5--------7--7--------9-----9--7-----7| 
Db||*-8--8--8-10-------10-10--5--5--5--5--------5--5--0--0--7-----7--7-----7| 
Ab||--8--8--8--8--8--8--8--8--5--5--5--5--5--5--5--5--0--0--0--0--0--0--0--0| 
Db||--8--8--8-----8--8--------5--5--5-----5--5--------0--0-----0--------0---|

(MAIN RIFF cont'd) 
Eb|-----------------------------|| 
Bb|-----------------------------|| 
Gb|-------------9--------7--7--*|| 
Db|-------------7--------7--7--*|| 
Ab|----0--0--0--0--0--0--0--0---|| 
Db|----0--0--0-----0--0---------|| 

(OUT OF CHORUS 1 - OUTRO/ENDING) "I'LL NEVER BE A PART OF YOUR LIFE..." 
Eb|----------------------------------------------------| 
Bb|----------------------------------------------------| 
Gb|----------10-10--9--9-----------5--5--7--7----------| 
Db|--8--8--8-10-10-10-10--5--5--5--5--5--5--5----0-----| 
Ab|--8--8--8--------------5--5--5----------------0-----| 
Db|--8--8--8--------------5--5--5----------------0-----| 
     *******              ******* 

(OUT OF CHORUS 2 – BEGINNING OF BRIDGE) 
Eb|-----------------------------------------------------------------------| 
Bb|-----------------------------------------------------------------------| 
Gb|----------10-10--9--9-----------5--5--7--7--------9-9---7-7---9---7-7--| 
Db|--8--8--8-10-10-10-10--5--5--5--5--5--5--5--------7-7---7-7---7---7-7--| 
Ab|--8--8--8--------------5--5--5----------------0-0-0-0-0-0-0-0-0-0-0-0--| 
Db|--8--8--8--------------5--5--5----------------0-0-0-0-0-0-0-0-0-0-0-0--| 
     *******              *******                  *     *     *   *

(OUT OF CHORUS 2 – BEGINNING OF BRIDGE cont'd) 
Eb|---------------------------------------------------------------------------| 
Bb|---------------------------------------------------------------------------| 
Gb|----------10-10--9--9-----------5--5--7--7---------------------------------| 
Db|--8--8--8-10-10-10-10--5--5--5--5--5--5--5--------------------------7------| 
Ab|--8--8--8--------------5--5--5--------------0-0-0-0-0-0-0-0-0-0-0-0---8----| 
Db|--8--8--8--------------5--5--5--------------0-0-0-0-0-0-0-0-0-0-0-0-----10-| 
     *******              *******               ********************* 

BRIDGE 

(MAIN RIFF) 
Eb|------------------------------------------------------------------| 
Bb|------------------------------------------------------------------| 
Gb|------9-----9----10----9--------------9-----9----10---12----------| 
Db|--------8-----8----8-------7------------0-----0----0------7-------| 
Ab|-----------------------------8------------------------------8-----| 
Db|--8-------8-----8----8---------10-0-------0-----0----0--------10--| 

(MAIN RIFF cont'd) 
Eb|--------------------------------------------------------------------| 
Bb|--------------------------------------------------------------------| 
Gb|------9-----9----10----9--------------------------------------------| 
Db|--------8-----8----8-------7------0--0-0--------------------7-------| 
Ab|-----------------------------8----0--0-0-7-0-0-8-0-0-10-0-0---8-----| 
Db|--8-------8-----8----8---------10-0--0-0---0-0---0-0----0-0-----10--| 
                                        * *   * *   * *    * *

(BRIDGE MAIN RIFF LAST PASS) 

Eb|------------------------------------------------------------------| 
Bb|------------------------------------------------------------------| 
Gb|------9-----9----10----9--------------9-----9----10---12----------| 
Db|--------8-----8----8-------7------------0-----0----0------7-------| 
Ab|-----------------------------8------------------------------8-----| 
Db|--8-------8-----8----8---------10-0-------0-----0----0--------10--| 

(BRIDGE MAIN RIFF LAST PASS cont'd) 
Eb|---------------------------------------------------------------------| 
Bb|---------------------------------------------------------------------| 
Gb|------9-----9----10----9---------------------------------------------| 
Db|--------8-----8----8-------7------0--0-0--------------------7-7-7----| 
Ab|-----------------------------8----0--0-0-7-0-0-8-0-0-10-0-0-7-7-7----| 
Db|--8-------8-----8----8---------10-0--0-0---0-0---0-0----0-0-7-7-7----| 
                                        * *   * *   * *    * *

(BRIDGE LEAD - OUTRO LEAD) 
{FIG. 1 [3X] TO FIG.2 [2ND PASS TO FIG 3]} {FIG. 2} {BACK TO FIG. 1} 
Eb||-------------------------|| |-------------------------| 
Bb||-13-------11-------10----|| |-13-------11----------10-| 
Gb||*---10--9----10--9----9-*|| |----10--9----10--9-12----| 
Db||*-----------------------*|| |-------------------------| 
Ab||-------------------------|| |-------------------------| 
Db||-------------------------|| |-------------------------| 

{FIG. 3} 
Eb|--------------------------------| 
Bb|-13-------11----------11-10-----| 
Gb|----10--9----10--9-12-----------| 
Db|--------------------------------| 
Ab|--------------------------------| 
Db|--------------------------------| 

(OUT OF BRIDGE [SOFT CHORUS - CLEAN]) "I STARE BLANK AT THE WORLD AROUND ME..." 
Eb||---------------------------------------------------| 
Bb||---------------------------------------------------| 
Gb||*--------10----9----------5---7---------9-----7----| 
Db||*-----10----10---10-----5---5---5-----7---7--------| 
Ab||----8-----------------5-------------0--------------| 
Db||--8-----------------5-------------0---------0------|

OUTRO 

(OUTRO FILL) "...MY WORDS WILL DIE..." 
{FIG. 4} 
Eb|----------------------------------| 
Bb|----------------------------------| 
Gb|-----9---9-7---7-------9----------| 
Db|-----7---7-7---7-------7-0-0-0-0--| 
Ab|-0-0-0-0-0-0-0-0-0-0-0-0-0-0-0-0--| 
Db|-0-0-0-0-0-0-0-0-0-0-0-0-0-0-0-0--| 
    ***   *     *   *****   ******* 

(OUTRO LEAD) 
Eb||-----------------12-13-12--|| 
Bb||--13---13/15---------------|| 
Gb||*-------------14----------*|| 
Db||*-------------------------*|| 
Ab||---------------------------|| 
Db||---------------------------||
Добавлено: 05.10.2013
Другие материалы по этой песне:
  • Аккорды и текст

Страница создана 05.10.2013
http://primanota.ru/daybreak-embrace/sanctuary-chords.htm
Привет, Гость.
Предлагаем пройти революционный курс по гитаре.
Подарок от PrimaNota.Ru, забирай!