PrimaNota.ru - самый крупный в мире бесплатный архив песенных текстов, аккордов, табулатур и нот


Day Of Fire - Run - текст песни, таба, бас-таба, видео

Регистрация Запомнить меня
Войти через:  Facebook Google Twitter Vk Yandex Mail.ru

Day Of Fire - Run - текст песни, таба, бас-таба, видео

Печатать
Просмотров: 218
Авторы: Chris Pangallo, Gregg Hionis, Joe Pangallo, Josh Brown, Zachary Simms

Song: Run
Artist: Day of Fire
Album: Cut & Move

Tuning: Drop C
        DGCFAD(Low to High)
Intro
D|-------------------------------------------------------------------------|
A|-------------------------------------------------------------------------|
F|-------------------------------------------------------------------------|
C|----------5-5-5------------5-5-5-----------5-5-5-------------------------|
G|0-0-3-5-0-3-3-3-0-0-3-5-0--3-3-3-0-0-3-5-0-3-3-3-6-5--5-3----------------|
D|0-0-3-5-0-------0-0-3-5-0--------0-0-3-5-0-------6-5--5-3----------------|


D|-------------------------------------------------------------------------|
A|-------------------------------------------------------------------------|
F|-------------------------------------------------------------------------|
C|----------5-5-5------------5-5-5-----------5-5-5-------------------------|
G|0-0-3-5-0-3-3-3-0-0-3-5-0--3-3-3-0-0-3-5-0-3-3-3-6-5--5-3----------------|
D|0-0-3-5-0-------0-0-3-5-0--------0-0-3-5-0-------6-5--5-3----------------|


Verse 1
D|-------------------------------------------------------------------------|
A|-------------------------------------------------------------------------|
F|-------------------------------------------------------------------------|
C|----------5-5-5------------5-5-5-----------5-5-5-------------------------|
G|----------3-3-3------------3-3-3-----------3-3-3-6-5--5-3----------------|
D|0-0-3-5-0-------0-0-3-5-0--------0-0-3-5-0-------6-5--5-3----------------|

PM|.......|     |.........|      |.........|


D|-------------------------------------------------------------------------|
A|-------------------------------------------------------------------------|
F|-------------------------------------------------------------------------|
C|----------5-5-5------------5-5-5-----------5-5-5-------------------------|
G|----------3-3-3------------3-3-3-----------3-3-3-6-5--5-3----------------|
D|0-0-3-5-0-------0-0-3-5-0--------0-0-3-5-0-------6-5--5-3----------------|

PM|.......|     |.........|      |.........|


I'm not sure of the chorus, i'll get it later...

    



Добавлено: 16.07.2012
Другие материалы по этой песне:

Страница создана 08.03.2012
http://primanota.ru/day-of-fire/run-chords.htm
Привет, Гость.
Предлагаем пройти революционный курс по гитаре.
Подарок от PrimaNota.Ru, забирай!