PrimaNota.ru - самый крупный в мире бесплатный архив песенных текстов, аккордов, табулатур и нот


Day Of Fire - Regret - текст песни, бас-таба, видео

Регистрация Запомнить меня
Войти через:  Facebook Google Twitter Vk Yandex Mail.ru

Day Of Fire - Regret - текст песни, бас-таба, видео

Печатать
Просмотров: 155
Авторы: Chris Pangallo, Gregg Hionis, Joe Pangallo, Josh Brown, Zachary Simms

---------------------------------------------------------------------------
			     REGRET – Day of Fire
---------------------------------------------------------------------------

Artist: Day of Fire
Album: Cut and Move

Tabbed By : Hurm

Tuning: standard 5-string (BEADG)


No bass in intro

G|-------------------------------|
D|-------------------------------|
A|------3-------3-------3--33-66-|
E|-5-535---5-535---5-535---------|
B|-------------------------------|

Verse
G|------------------------------------------------------------------|
D|------------------------------------------------------------------|
A|--------------353-------------3-----------------------------------| 2x
E|-555-5555-55-5---111-1111-11-1-13----------------111-1111-11-0-1--|
B|---------------------------------333-3333-33-3333-------------3-3-|

Pre-chorus
G|---------------------------|
D|---------------------------|
A|---------------------------|
E|---------------------------|
B|-333333333333333366666666~-|

Chorus
G|-----------------------------------------------------------------|
D|-----------------------------------------------------------------|
A|---------------3-------------------------------------------------| 2x
E|-5-55555-5-5555-53-33333-3-3333031-1111111-1111113-33335---------|
B|-------------------------------------------------------63-333313-|


G|-------------------------------|
D|-------------------------------|
A|------3-------3-------3--33-66-|
E|-5-535---5-535---5-535---------|
B|-------------------------------|

Verse
G|------------------------------------------------------------------|
D|------------------------------------------------------------------|
A|--------------353-------------3-----------------------------------| 2x
E|-555-5555-55-5---111-1111-11-1-13----------------111-1111-11-0-1--|
B|---------------------------------333-3333-33-3333-------------3-3-|

Pre-chorus
G|---------------------------|
D|---------------------------|
A|---------------------------|
E|---------------------------|
B|-333333333333333366666666~-|

Chorus
G|-----------------------------------------------------------------|
D|-----------------------------------------------------------------|
A|---------------3-------------------------------------------------| 2x
E|-5-55555-5-5555-53-33333-3-3333031-1111111-1111113-33335---------|
B|-------------------------------------------------------63-333313-|

Bridge
G|----------------------------------|
D|----------------------------------|
A|----------------------------------|
E|-1-11-11--11--11-3-33-33--33--33--|
B|----------------------------------|

G|---------------------------------------------------|
D|----5h7p55h7p5----5h7p55h7p5----5h7p55h7p5---------|
A|--------------7-------------7-------------7---353--|
E|-555-----------555-----------555-----------555---3-|
B|---------------------------------------------------|

G|----------------------------------|
D|----------------------------------|
A|----------------------------------|
E|-1-11-11--11--11-3-33-33--33------|
B|----------------------------------|

Chorus
G|------------------------------------------------------------------|
D|------------------------------------------------------------------|
A|-------------------------------------03~3----03~------------------|
E|---------------------------------1-13----1-13----3-33335----------|
B|--------------------------------------------------------63-333313-|

G|------------------------------------------------------------------|
D|------------------------------------------------------------------|
A|------3-------3---------------------------------------------------|
E|-5-535---5-535--53-3333303-3333031-1111111-1111-13-33335----------|
B|-----------------------------------------------3--------63-333313-|

G|-----------------------------------------------------------------|
D|-----------------------------------------------------------------|
A|---------------3-------------------------------------------------| 
E|-5-5555355-5555-53-33333-3-3333031-1111111-1111113-33335---------|
B|-------------------------------------------------------63-333313-|

Ending
G|----------------------------------|
D|----------------------------------|
A|------3-------3-------3-------3---|
E|-5-535---5-535---5-535---5-535----|
B|----------------------------------|

G|--------------------------------|
D|--------------------------------|
A|------3-------3-------3--33-66\-|
E|-5-535---5-535---5-535----------|
B|--------------------------------|


| \  slide down
| h  hammer on
| p  pull of
| ~  let ring

===========================================================================
Добавлено: 16.03.2012
Другие материалы по этой песне:
  • Аккорды и текст

Страница создана 16.03.2012
http://primanota.ru/day-of-fire/regret-chords.htm
Привет, Гость.
Предлагаем пройти революционный курс по гитаре.
Подарок от PrimaNota.Ru, забирай!