PrimaNota.ru - самый крупный в мире бесплатный архив песенных текстов, аккордов, табулатур и нот


Dawn - Push Forward - таба, видео

Регистрация Запомнить меня
Войти через:  Facebook Google Twitter Vk Yandex Mail.ru

Dawn - Push Forward - таба, видео

Печатать
Просмотров: 133
PUSH FORWARD by The Dawn

INTRO:

e|---3-3---3-3---3---3-3---3-3---3---3-3---3-3---3---3-3---3-3---3--|
B|-------3-----3---------3-----3---------3-----3---------3-----3----|
G|------------------------------------------------------------------|
D|------------------------------------------------------------------|
A|------------------------------------------------------------------|
E|-3---------------3---------------3---------------3----------------|

e|---3-3---3-3---3---3-3---3-3---3---3-3---3-3---3---3-3---3-3---3--|
B|-------3-----3---------3-----3---------3-----3---------3-----3----|
G|------------------------------------------------------------------|
D|------------------------------------------------------------------|
A|-3---------------3------------------------------------------------|
E|---------------------------------3---------------3----------------|

VERSE 1:

e|---3-3---3-3---3---3-3---3-3---3---3-3---3-3---3---3-3---3-3---3--|
B|-------3-----3---------3-----3---------3-----3---------3-----3----|
G|------------------------------------------------------------------|
D|------------------------------------------------------------------|
A|------------------------------------------------------------------|
E|-3---------------3---------------3---------------3----------------|

e|---3-3---3-3---3---3-3---3-3---3---3-3---3-3---3---3-3---3-3---3--|
B|-------3-----3---------3-----3---------3-----3---------3-----3----|
G|------------------------------------------------------------------|
D|------------------------------------------------------------------|
A|-3---------------3------------------------------------------------|
E|---------------------------------3---------------3----------------|

CHORUS:

All I can do is push forward, and try a little harder this time

e|----------|
B|-1--1--3--|
G|-3--2--4--|
D|-3--3--5--|
A|-1--3--5--|
E|----------|

All I can do is push forward

e|-------------------------------------------|
B|-------------------------------------------|
G|-3-------------------3----------------5----|
D|-3--3--3/5-5-5-6/5-5-3--3/5-5-5-6/5-5-5--5-|
A|-1--3--3/5-5-5-6/5-5-1--3/5-5-5-6/5-5-3--5-|
E|----1--1/3-3-3-4/3-3----1/3-3-3-4/3-3----3-|

VERSE 2:

e|------------------------------------------|
B|------------------------------------------|
G|-------------------3----------------5--5--| 4x
D|-----3/5-5-5-6/5-5-3--3/5-5-5-6/5-5-5--5--|
A|-----3/5-5-5-6/5-5-1--3/5-5-5-6/5-5-3--3--|
E|-----1/3-3-3-4/3-3----1/3-3-3-4/3-3-------|

CHORUS:

All I can do is push forward, and try a little harder this time

e|-----------------------------------------|
B|-----------------------------------------|
G|-3-------------------3----------------5--|
D|-3--3--3/5-5-5-6/5-5-3--3/5-5-5-6/5-5-5--|
A|-1--3--3/5-5-5-6/5-5-1--3/5-5-5-6/5-5-3--|
E|----1--1/3-3-3-4/3-3----1/3-3-3-4/3-3----|

All I can do is push forward

e|-----------------------------------------------------------|
B|-----------------------------------------------------------|
G|-3------------------3-3-3-3-3-3--8-8-8-8-8-8--5-5-5-5-5-5--|
D|-3--3--5-5-5-5-5-5--3-3-3-3-3-3--8-8-8-8-8-8--5-5-5-5-5-5--|
A|-1--3--5-5-5-5-5-5--1-1-1-1-1-1--6-6-6-6-6-6--3-3-3-3-3-3--|
E|----1--3-3-3-3-3-3-----------------------------------------|

e|----------------------------------------------------|
B|----------------------------------------------------|
G|---------------------------3-3-3-3-3-3--------------|
D|-5-5-5-5-5-5--6-6-6-6-6-6--3-3-3-3-3-3--5-5-5-5-5-5-|
A|-5-5-5-5-5-5--6-6-6-6-6-6--1-1-1-1-1-1--3-3-3-3-3-5-|
E|-3-3-3-3-3-3--4-4-4-4-4-4---------------------------|


NITRAM
06-01-08
02:08 PM
Добавлено: 30.04.2012
Другие материалы по этой песне:
  • Аккорды и текст

Страница создана 30.04.2012
http://primanota.ru/dawn/push-forward-chords.htm
Привет, Гость.
Предлагаем пройти революционный курс по гитаре.
Подарок от PrimaNota.Ru, забирай!