PrimaNota.ru - самый крупный в мире бесплатный архив песенных текстов, аккордов, табулатур и нот


Dawn - Identify - таба, видео

Регистрация Запомнить меня
Войти через:  Facebook Google Twitter Vk Yandex Mail.ru

Dawn - Identify - таба, видео

Печатать
Просмотров: 158
Band: The Dawn (dk)
Song: Identify
Tabber: Johan Hummelmose Enevoldsen

Intro guitar 1, Distortion
E:--------1414------------1414-----|
B:----1212----1212----1212----1212-|
G:1313------------1313-------------|
D:---------------------------------|
A:---------------------------------|
E:---------------------------------|

Intro guitar 1 continued, Distortion
E:--------1414---------------1414--------|
B:----1212----1212-------1212----1212----|
G:1313-------------x2-1111------------x2-| x2
D:---------------------------------------|
A:---------------------------------------|
E:---------------------------------------|

Intro guitar 2, Distortion
E:------------------------------------------|
B:------------------------------------------|
G:------------------------------------------|
D:6----8----9----4-----6----8----9----2-----|
A:6-x6-8-x2-9-x8-4-x16-6-x6-8-x2-9-x8-2-x16-|
E:4----6----7----2-----4----6----7----0-----|

Vers Guitar 1, Clean
Bm(i think), E, Bm, A, Eb, E(high) x2

Chorus Guitar 1, Distortion
E:---------------------------------------------|
B:---------------------------------------------|
G:---------------------------------------------|
D:6----8----9----4-----/9-6----8----9----2-----| x2
A:6-x6-8-x2-9-x8-4-x12-/9-6-x6-8-x2-9-x7-2-x15-|
E:4----6----7----2-----/7-4----6----7----0-----|

Post chorus Guitar 1, Distortion
E:--------1414---------------1414--------|
B:----1212----1212-------1212----1212----|
G:1313-------------x2-1111------------x2-| x2
D:---------------------------------------|
A:---------------------------------------|
E:---------------------------------------|

Post Chorus guitar 2, Distortion
E:------------------------------------------|
B:------------------------------------------|
G:------------------------------------------|
D:6----8----9----4-----6----8----9----2-----|
A:6-x6-8-x2-9-x8-4-x16-6-x6-8-x2-9-x8-2-x16-|
E:4----6----7----2-----4----6----7----0-----|


Vers Guitar 1, Clean
Bm(i think), E, Bm, A, Eb, E(high)

Chorus Guitar 1, Distortion
E:---------------------------------------------|
B:---------------------------------------------|
G:---------------------------------------------|
D:6----8----9----4-----/9-6----8----9----2-----| x2
A:6-x6-8-x2-9-x8-4-x12-/9-6-x6-8-x2-9-x7-2-x15-|
E:4----6----7----2-----/7-4----6----7----0-----|

Bridge Guitar 1, Akkustic
C#, Bm, Eb, E x2

Post Bridge, Distorton (heavy?)
E:---------------------|
B:---------------------|
G:---------------------|
D:6----8----9----4-----|
A:6-x6-8-x2-9-x8-4-x11-|
E:4----6----7----2-----|

Chorus Guitar 1, Distortion
E:-----------------------------------------------|
B:-----------------------------------------------|
G:-----------------------------------------------|
D:6----8----9----4-----/9----6----8----9----2----| x2
A:6-x6-8-x2-9-x8-4-x12-/9-x4-6-x6-8-x2-9-x7-2-x?-|
E:4----6----7----2-----/7----4----6----7----0----|

Comes in before repeating Chorus
E:----------------------|
B:----------------------|
G:----------------------|
D:1413-1311-11-119-8984-|
A:1413-1311-11-119-8984-|
E:1211-119--9--9-7-6762-|

The intro riff comes in again
E:--------1414---------------1414--------|
B:----1212----1212-------1212----1212----|
G:1313-------------x2-1111------------x2-| x2
D:---------------------------------------|
A:---------------------------------------|
E:---------------------------------------|
Добавлено: 16.04.2012
Другие материалы по этой песне:
  • Аккорды и текст

Страница создана 16.04.2012
http://primanota.ru/dawn/identify-chords.htm
Привет, Гость.
Предлагаем пройти революционный курс по гитаре.
Подарок от PrimaNota.Ru, забирай!