PrimaNota.ru - самый крупный в мире бесплатный архив песенных текстов, аккордов, табулатур и нот


Dawn - Enveloped Ideas - таба, видео

Регистрация Запомнить меня
Войти через:  Facebook Google Twitter Vk Yandex Mail.ru

Dawn - Enveloped Ideas - таба, видео

Печатать
Просмотров: 135
intro:
    E|---------------|
    B|---------------|
A:  G|---------------|
    D|-5-5-----------|-------8X
    A|----6-6----8-8-|
    E|-------6-6-----|

    E|---------------------------------------------|
    B|---------------------------------------------|
B:  G|---------------------------------------------|
    D|-5----5-6-8-1O-8-------5----5-6-8-10-8-------|
    A|-----------------8---------------------8-6-8-|
    E|---------------------------------------------|

   E|--------------------------------------------|
   B|--------------------------------------------|
C: G|--------------------------------------------|
   D|--------------------------------------------|
   A|----------------6---------------------6-4-6-|
   E|-3----3-4-6-8-6--------3----3-4-6-8-6-------|


STANZA:

REAPEAT INTRO-A 8X. THEN DO THIS:

E|------------------|
B|------------------|
G|------------------|-------8X
D|---------3-3------|
A|-----4-4------6-6-|
E|-3-3--------------|

CHORUS:   F#,C#,Cd,A#,Cd,C#,F#,----------4X

AFTER CHORUS, REPEAT INTRO C. THEN, REPEAT STANZA. AFTER STANZA,REPEAT CHORUS. AFTER 
REPEAT INTRO C THEN SOLO.


E|----------------------------------------------|
B|----------------------------------------------|
G|----------------------------------------------|
D|----------------------------------------------|
A|--------4-----------4------------2----------2-|
E|-6--4-3-----6--4-3--------4--2-1-----4--2-1---|

E|-----------------------------------------------------|
B|-----------------------------------------------------|
G|-----------------------------------------------------|
D|-8---------------8-----------------6---------------6-|
A|---6-8-9---9-8-6---6-8-9---9-8-6-----4-6-7---7-6-4---|
E|---------6---------------6-----------------4---------|

E|---------------------------------|
B|---------------------------------|
G|---------------------------------|
D|-6-8-6-8-6-8-6-8-----------------|
A|-----------------6-8-9-----------|
E|-----------------------6-8-9--11-|

AFTER SOLO, REPEAT CHORUS UNTIL FADING
E|-
Добавлено: 23.02.2012
Другие материалы по этой песне:

Страница создана 23.02.2012
http://primanota.ru/dawn/enveloped-ideas-chords.htm
Привет, Гость.
Предлагаем пройти революционный курс по гитаре.
Подарок от PrimaNota.Ru, забирай!