PrimaNota.ru - самый крупный в мире бесплатный архив песенных текстов, аккордов, табулатур и нот


Dawn - Dreams - таба, видео

Регистрация Запомнить меня
Войти через:  Facebook Google Twitter Vk Yandex Mail.ru

Dawn - Dreams - таба, видео

Печатать
Просмотров: 94
Dreams - The Dawn

Tabbed by: AmDC
I learned this song by ear, I hope you like it! :D
Proud Pinoy!!

Intro/Riff 1

e|--------------------------------------------------------------------------|
B|-----------0--5--0--------0--5--0-----------------------------------------|
G|-------6-----------6---6----------6---------------------------------------|
D|---7-----------------7----------------------------------------------------|
A|--------------------------------------------------------------------------|
E|--------------------------------------------------------------------------|

e|--------------------------------------------------------------------------|
B|----------0--5--0--------0--5--0------------------------------------------|
G|-------5-----------5---5----------5---------------------------------------|
D|---5-----------------5----------------------------------------------------|
A|--------------------------------------------------------------------------|
E|--------------------------------------------------------------------------|

(2x)

Verse 1: Riff 1

Dreams are made for children
Reasons you and I can see
The answers are aplenty
They happen to you and me

Break/Riff 2

e|----------------------------------------------------------|
B|----3---2---3---2---3---2-------1---0---1---0---1---0-----|
G|----2---2---2---2---2---2-------0---0---0---0---0---0-----|
B|----------------------------------------------------------|
A|----------------------------------------------------------|
E|----------------------------------------------------------|

(4x)



Verse 2: (Riff 1, slightly faster)

Dreams are made for children
Reasons you and I can see
The answers are aplenty
They happen to you and me



Chorus:

How to play:

     G                F
D|--5-5-5-5-5--3-3-3-3-3--|
A|--5-5-5-5-5--3-3-3-3-3--| (4x)
E|--3-3-3-3-3--1-1-1-1-1--|

     A               G
D|--7-7-7-7-7--5-5-5-5-5|
A|--7-7-7-7-7--5-5-5-5-5| (2x)
E|--5-5-5-5-5--3-3-3-3-3|

      F                G
D|--3-3-3-3-3--5-5-5-5-5--|
A|--3-3-3-3-3--5-5-5-5-5--| (2x)
E|--1-1-1-1-1--3-3-3-3-3--|

    G               F             G-F
Dreams are made for children
    G         F        G-F
Now you do not see
       A                        G
The answers you no longer find
A               G         F           G-F-G
What has happened to you, to you and me...

(Break/Riff 2)

Verse 3: (Riff 1, slightly faster)

Have the years passed?
Have our love not soared?
When have you dreamt last?
Now you're bored

(Repeat Chorus)
(Break/Riff 2)

Verse 4: (Riff 1, slightly faster)

Now at the wall we stare
Back against the door
Looking for that dream so rare
From what sky did we fall?

(Repeat Chorus)

Solo:
E|--------------------------------------------------------------------------|
B|-----------6------6---8-----12s13--11--10---10s11----10-------------------|
G|--------7-----9-------------------------------------------------9---------|
D|----8---------------------------------------------------------------------|
A|--------------------------------------------------------------------------|
E|--------------------------------------------------------------------------|

E|---------------------------------|
B|-----------4-----------4-----6---|
G|-------5-------------------------|
D|---6-------------7---------------|     (2x)
A|---------------------------------|
E ---------------------------------|

Ending:

   C            Bb
Dream, Dream away
  C             Bb
Dream, Dream, Dream away
Ab                     Bb
Dream, Dream, Dream away
Ab              Bb
Dream, Dream Dream away (2x)

How to play:
        C                  Bb
E|------------------------------------|
B|--------------8-----------6---------|
G|----------9-----------7-------------|
D|----10------------8-----------------|
A|------------------------------------|
E|------------------------------------|

         Ab           Bb
E|---------------------------------|
B|-----------4-----------4-----6---|
G|-------5-------------------------|
D|---6-------------7---------------|
A|---------------------------------|
E|---------------------------------|

---------END---------
E|--0--
B|--1--
G|--0-- (let ring...
D|--2--
A|--3--
E|--0--
Добавлено: 30.09.2013
Вам также может быть интересно:
Другие материалы по этой песне:
  • Аккорды и текст

Страница создана 30.09.2013
http://primanota.ru/dawn/dreams-chords.htm
Привет, Гость.
Предлагаем пройти революционный курс по гитаре.
Подарок от PrimaNota.Ru, забирай!