PrimaNota.ru - самый крупный в мире бесплатный архив песенных текстов, аккордов, табулатур и нот


Dawn Of Tears - Echoes Of Eternal Life - таба, видео

Регистрация Запомнить меня
Войти через:  Facebook Google Twitter Vk Yandex Mail.ru

Dawn Of Tears - Echoes Of Eternal Life - таба, видео

Печатать
Просмотров: 94
Artist: Dawn of Tears
Song: Echoes of Eternal Life
Album: Descent

This tab is old and inaccurate.  Please go to the guitar pro tab I made of the same 
song.  It is much more precise and is 100% complete, unlike this.  Thanks!

Here is the band's website: www.dawnoftears.com

Intro (0:00-0:31)
E---------------------------------------------------------|
B---------------------------------------------------------|
G---------------------------------------------------------|
D-7”----10”----7”--9”----12”----9”--10”----14”----12”—----|
A---------------------------------------------------------|
E---------------------------------------------------------|
PM

E----------------------|
B----------------------|
G----------------------|
D-15”--14”--12”--9”—---|
A----------------------|
E----------------------|
PM

Play those 2 lines 4 times.

E-------------------------------------------------------------|
B-------------------------------------------------------------|
G-------------------------------------------------------------|
D-7----10----7--9----12----9-------12----10--9----10----5-----|
A-----------------------------8-------------------------------|
E-------------------------------------------------------------|
PM

E---------------------------------------------------|
B---------------------------------------------------|
G---------------------------------------------------|
D-7----10-----7--9----12----9-------12----10--9-----|
A------------------------------8--------------------|
E---------------------------------------------------|
PM

Play those 2 lines 1 time.

Verse (0:31-1:18)
E----------------------------------------------------------------------|
B----------------------------------------------------------------------|
G----------------------------------------------------------------------|
D-7”----10”----7”--9”----12”----9”--------12”----10”--9”----10”----5”—-|
A-----------------------------------8”---------------------------------|
E----------------------------------------------------------------------|
PM

Play that line 2 times.

E------------------------------------|
B------------------------------------|
G--------------------7-9-10-9-7------|
D-7----10----7--9---------------10---|
A------------------------------------|
E------------------------------------|
PM

E-------------------------------------------|
B-------------------------------------------|
G-----------------------10-12-13-12-10------|
D-10----13----10--12-------------------13---|
A-------------------------------------------|
E-------------------------------------------|
PM

Play those 2 lines 2 times.

E------------------------------------------------------------|
B------------------------------------------------------------|
G------------------------------------------------------------|
D------------------------12*~-------------------------12*~---|
A------------------------------------------------------------|
E-0-0-0--111-111--0-0-0--------0-0-0--111-111--0-0-0---------|
PM- - -  --- ---  - - -        - - -  --- ---  - - -

Play that line 1 time.

E----------------------------------------------------------------------|
B----------------------------------------------------------------------|
G----------------------------------------------------------------------|
D----------------------------------------------------------------------|
A-9-------9--7-10--10”--------7-------7--5-8----10--8--7---------------|
E-7--777----------------------5--555----------0---0---0----------------|
PM   ---           -             ---          -   -   -

Play that line 4 times.

Chorus (1:18-1:49)
E----------------------------------------------------------------------|
B----------------------------------------------------------------------|
G----------------------------------------------------------------------|
D----------------------------------------------------------------------|
A-7----7---8--------5-7-8-7-5-7--7----7---8--------5-7-8-7-5-7---------|
E-5--0---0---0-7--8--------------5--0---0---0-7--8---------------------|
PM   -   -   -                      -   -   -

E--------------------------------|
B--------------------------------|
G--------------------------------|
D--------------------------------|
A-7----7---8---------------------|
E-5--0---0---0-7--7-7-7-777-777—-|
PM   -   -   -    - - - --- ---

E------------------------------------------|
B------------------------------------------|
G------------------------------------------|
D------------------------------------------|
A-11-11-11-11-11-11-11-11-9-9-9-9-9-9-9-9—-|
E-9--9--9--9--9--9--9--9--7-7-7-7-7-7-7-7--|
PM-  -  -  -  -  -  -  -  - - - - - - - -

Play those 3 lines 2 times.

E------------------------------------------------------------------------|
B------------------------------------------------------------------------|
G------------------------------------------------------------------------|
D------------------------------------------------------------------------|
A-------------12---------*------------10-----------------------12--------|
E-10-13-10-13----13-10-1313-8-12-8-12----12-8-1313-10-13-10-13----13-10--|
PM-  -  -  -     -  -  - -  - -  - -     -  - - -  -  -  -  -     -  -

*Those are 13's, not 1's and 3's.

E-------------------------------------------------------------------------|
B-------------------------------------------------------------------------|
G-------------------------------------------------------------------------|
D-------------------------------------------------------------------------|
A----------------10-----------------------12----------------------10------|
E-1313-8-12-8-12----12-8-1313-10-13-10-13----13-10-1313-8-12-8-12----12-8-|
PM- -  - -  - -     -  - - -  -  -  -  -     -  -  - -  - -  - -     -  -

E-------------------------------------------|
B-10-8-6---8-6------------------------------|
G--------9-----7h9p7-5-9-7-5---7-5----------|
D----------------------------9-----7h9p7-5--|
A-------------------------------------------|
E-------------------------------------------|
PM

Play those 3 lines 2 times.

Verse (1:49-2:20)
E----------------------------------------------------------------------|
B----------------------------------------------------------------------|
G----------------------------------------------------------------------|
D-7”----10”----7”--9”----12”----9”--------12”----10”--9”----10”----5”—-|
A-----------------------------------8”---------------------------------|
E----------------------------------------------------------------------|
PM

Play that line 2 times.

E---------------------------------------------------------------------------|
B---------------------------------------------------------------------------|
G-------------------9”----------------10”----------------12”----------------|
D-7”--10”--9”--10”------10”--9”--10”-------10”--9”--10”-------10”—-9”—-10”--|
A---------------------------------------------------------------------------|
E---------------------------------------------------------------------------|
PM

E--------------------------------------------------------------------------|
B--------------------------------------------------------------------------|
G-------------------9”----------------10”----------------12”—-10”—-9”—-7”--|
D-7”--10”--9”--10”------10”--9”--10”-------10”--9”—-10”--------------------|
A--------------------------------------------------------------------------|
E--------------------------------------------------------------------------|
PM

Play those 2 lines 1 time.

Breakdown (2:31-2:45)
E----------------------------------------------------------------------|
B----------------------------------------------------------------------|
G----------------------------------------------------------------------|
D----------------------------------------------------------------------|
A----------------------------------------------------------------------|
E-555--555--6--3--555--555--6--3--555--555--6--3--555--555--6--3-------|
PM---  ---  -  -  ---  ---  -  -  ---  ---  -  -  ---  ---  -  -

E----------------------------------------------------------------------|
B----------------------------------------------------------------------|
G----------------------------------------------------------------------|
D----------------------------------------------------------------------|
A-777--777--8--5--777--777--8--5--777--777--8--5--777--777--8--5-------|
E-555--555--6--3--555--555--6--3--555--555--6--3--555--555--6--3-------|
PM

Play those 2 lines 1 time.

Tab Legend
“ = tremolo pick
* = pinch harmonic
H = hammer-on
P = pull-off
/ = slide up
\ = slide down
- = palm mute
~ = vibrato
B = bend
Добавлено: 21.02.2012
Вам также может быть интересно:
Другие материалы по этой песне:

Страница создана 21.02.2012
http://primanota.ru/dawn-of-tears/echoes-of-eternal-life-chords.htm
Привет, Гость.
Предлагаем пройти революционный курс по гитаре.
Подарок от PrimaNota.Ru, забирай!