PrimaNota.ru - самый крупный в мире бесплатный архив песенных текстов, аккордов, табулатур и нот


Dawes - Most People - аккорды и текст, видео

Регистрация Запомнить меня
Войти через:  Facebook Google Twitter Vk Yandex Mail.ru

Dawes - Most People - аккорды и текст, видео

Печатать
Просмотров: 109
Most People
Dawes
-------------------------------------------------------------------------------
                                       MOST PEOPLE - Dawes
-------------------------------------------------------------------------------

Tabbed by: Macheeoo (in cooperation with UG.com user DrLeonard)
E-mail: macheeoo@yahoo.com

Tuning: Standard

Riff Chords    |    Verse/Chorus Chords
     A   D   A | D   F#m Em  Bm  G   E/G#
e|---0---0---0-|-2---2---0---2---3---0---------|
B|---2---3---5-|-3---2---0---3---0---5---------|
G|---2---2---6-|-2---2---0---4---0---4---------|
D|---2---4---7-|-0---4---2---4---0---6---------|
A|---0---0---0-|-X---4---2---2---2---X---------|
E|---X---X---X-|-X---2---0---X---3---4---------|



        Intro/Chorus Riff:
     A A A D A           G    D    A   
e|---0-0-0-0-0-----------3----2----0--------|
B|---2-2-2-3-5-------0----3----2--------|
G|---2-2-2-2-6-------0----2----2--------|
D|---2-2-2-4-7-----------0----0----2--------|
A|---0-0-0-0-0-----------2----X----0--------|
E|-----------------------3----X----X--------|


Verse:
       D                           F#m
If she listens very carefully to a room of conversation
        D                                F#m
She can feel the planet orbiting through space
         Em                      Bm
She hears pieces of arguments, beginnings of jokes
         G            E/G#               A
And the outlines of a song she cannot place

       D                            F#m
And it all makes up an image that resists interpretation
         D                           F#m
Which is lately how she likes to see herself
             Em                                Bm
How she does not believe in accidents, doesn't disagree out loud
            G                E/G#           A      
And falls in love with every man she cannot help


Chorus:
RIFF

(A)              G                                     D           A  RIFF
And she thinks most people don't talk enough about how lucky they are
G                              D                              A    RIFF
Most people don't know what it takes for me to get through the day
G                                      D               A      RIFF
Most people don't talk enough about the love in their hearts
                     G                          D    A
But she doesn't know most people feel that same way


Verse:
       D                             F#m
If she focuses her energies on just walking through the neighborhood
     D                               F#m
With depths and shallows nobody could sound
     Em                             Bm
Like January Christmas lights under billion year old stars
                 G                E/G#                 A
She comes up with more of what is lost than what is found

          D                                   F#m
So by the time that she explains to me just a glimpse of what she's understood
     D                                F#m
She betrays the meaning putting it in words
       Em                                    Bm 
So she smiles at me lovingly and says, "just let me hold your hand"
                G             E/G#             A        
So far it's the only way I can let myself be heard


Chorus:
RIFF

(A)              G                                     D           A  RIFF
And she thinks most people don't talk enough about how lucky they are
G                              D                              A    RIFF
Most people don't know what it takes for me to get through the day
G                                      D               A      RIFF
Most people don't talk enough about the love in their hearts
                     G                          D    A
But she doesn't know most people feel that same way



Bridge/Chorus:
(Riff)
A A A D A -->  A      
Bm   G     
Bm   A     
Bm   G


And she thinks most people don't talk enough about how lucky they are

Most people don't know what it takes for me to get through the day

Most people don't talk enough about the love in their hearts

But she doesn't know most people feel that same way


Solo:
e|---------------------------7--9-10p9-7---------------------------------7-9-|
B|--3p2h3/5~--7-5-7/8~--8-10-------------10-8-7-5-3~-----3p2-3/5-7-8-10------|
G|---------------------------------------------------------------------------|
D|---------------------------------------------------------------------------|
A|---------------------------------------------------------------------------|
E|---------------------------------------------------------------------------|
 |                                                                           |
e|---------7-9--9-10------7-9-10---7-9-10/12-10----12/14--12-10--------------|
B|-7-8-10--------------8--------8--------------10---------------14-12-10~----|
G|---------------------------------------------------------------------------|
D|---------------------------------------------------------------------------|
A|---------------------------------------------------------------------------|
E|---------------------------------------------------------------------------|


Chorus:
RIFF

(A)              G                                     D           A  RIFF
And she thinks most people don't talk enough about how lucky they are
G                              D                              A    RIFF
Most people don't know what it takes for me to get through the day
G                                       D              A      RIFF
Most people don't talk enough about the love in their hearts
                     G                          D    A
But she doesn't know most people feel that same way


A   Bm  G
Bm   A
Bm   G

END on G!!!
Добавлено: 18.09.2013
Другие материалы по этой песне:
  • Аккорды и текст

Страница создана 18.09.2013
http://primanota.ru/dawes/most-people-chords.htm
Привет, Гость.
Предлагаем пройти революционный курс по гитаре.
Подарок от PrimaNota.Ru, забирай!