PrimaNota.ru - самый крупный в мире бесплатный архив песенных текстов, аккордов, табулатур и нот


Dawes - Love Is All I Am - таба, видео

Регистрация Запомнить меня
Войти через:  Facebook Google Twitter Vk Yandex Mail.ru

Dawes - Love Is All I Am - таба, видео

Печатать
Просмотров: 108
Dawes - Love is all I am
Capo 2
Fmaj7  xx3213
C/Gsus 320013


Intro/verse riff
This is just the bassmelody the c-chord is constantly strummed

verse riff
e|-3---------------------|
B|-1---------------------|
G|-0---------------------|
D|-2--------------0p2----|
A|-3----------0p3--------|
E|---0-0--0p3------------|

pre-chorus riff
e|-----------------------------|
B|-----------------------------|
G|-----------------0h2---------|
D|------------0h2--------------|
A|------0h3--------------------|
E|-0h3-------------------------|

C* riff
e|-3-------------3----------|
B|-1-------------1----------|
G|-0-------------0----------|
D|-2-------------2---2h3p2--|
A|-3---------0h3-3----------|
E|----0--0h3----------------|

C figure 
e|-3--1--0----------|
B|-1--1--1----------|
G|-0--0--0----------|
D|-2--2--2----------|
A|-3--3--3----------|
E|------------------|

Verse riff
I need a silent true-way to admire.
Like you as a sunset, and I as a wildfire.
Dm       Fmaj7          C (verse)  
And I can let the day go...

Verse riff
I've locked up these words, in fear that I'd say them wrong.
Is it love as a mountain, or love as a simple song?
Dm        Fmaj7              C (verse)
And the moment that the two meet
Dm        Fmaj7              C (pre-chorus)
has now laid itself at your feet

Chorus
Fmaj7    C  Dm   C   Fmaj7     C* 
And love is not convenient; it does not cease at your command
Fmaj7    C  Dm   C  Fmaj7     
You might take and leave it, 
Em      C/Gsus      C (C figure)
but love is all I am.
Em     C/Gsus    C (C figure)
Love is all I am.

Verse
I need a boundless, soft way to commend
Like you as a temper, and I as it's tender end.
And however long your fits last
I will live within your shadow cast.

Chorus
And love is still your stranger; it does not respect how much you'll stand
You might be love's reminder, 
but love is all I am.
Love is all am.

Verse
I need a graceful, proud way to let go
To smile and accept the things that you don't know
The losses and the gains blurred
The weight of these as last words

Chorus
And love is not excitement; it's not kissing, or holding hands
I'm not some assignment; 
no, love is all I am
Love is all I am.
Love is all I am.

http://www.myspace.com/dawestheband
Добавлено: 29.04.2012
Другие материалы по этой песне:
  • Аккорды и текст

Страница создана 29.04.2012
http://primanota.ru/dawes/love-is-all-i-am-chords.htm
Привет, Гость.
Предлагаем пройти революционный курс по гитаре.
Подарок от PrimaNota.Ru, забирай!