PrimaNota.ru - самый крупный в мире бесплатный архив песенных текстов, аккордов, табулатур и нот


Dawes - I Cant Think About It Now - таба, видео

Регистрация Запомнить меня
Войти через:  Facebook Google Twitter Vk Yandex Mail.ru

Dawes - I Cant Think About It Now - таба, видео

Печатать
Просмотров: 164
------------------------------------------------------------------------------
                             I Can't Think About It Now - Dawes
-------------------------------------------------------------------------------
Tabbed by:DawesTheTab

E-mail: merrilleric18@yahoo.com

Hey guys, just heard this new tune by Dawes, and figured I would tab it out for you!
Most of it I learned from ear, but if you head over to this youtube video: 

https://www.youtube.com/watch?v=icWiuVxBt2Q 

you can watch Taylor play it and get a better understanding. 
This is my first tab so go easy, 
Hope this helps! also I didn't tab the whole solo out because Taylor just noodles live,so this is
the general idea of the tune. If someone wanted to finish the solo, I would really appreciate it.
Thank you for viewing! 

Note: A lot of the verse he uses his thumb for bass roots of the chords. 
I also gave up on the timing, just play along with the song and you will get it. 

Tuning:Standard

Intro:
e|-------|
B|-8-8-5-|
G|-7-7-5-|
D|-9-9-7-|
A|-------|
E|-------|

Riff/Chorus:
e|----------------3-0----------|
B|-2/-10---13-12------3--------|
G|-1/-9----12-12---------------| X2
D|-2/-10---14-12---------------|
A|-----------------------------|
E|-----------------------------|

Verse 1:
e|------------------------------0----0-0----0-0---0--0--0--0---|
B|-(5)-----(1)----(3)----(0)----1----1-1----3-1---3--3--1--1---|
G|-(6)-----(2)----(4)----(0)----2----2-2----4-2---4--4--2--2---|
D|-(7)-x24-(3)-x8-(5)-x8-(2)-x8-2-x8-3-2----5-3---5--5--2--3---|
A|-(7)-----(3)----(5)----(2)----0----3-0----5-3---5--0--0--3---|
E|-(5)-----(1)----(3)----(0)----0----0-0----0-0---0--0--0--0---|

 Riff/Chorus:
e|----------------3-0----------|
B|-2/-10---13-12------3--------|
G|-1/-9----12-12---------------| X2
D|-2/-10---14-12---------------|
A|-----------------------------|
E|-----------------------------|

Verse 2:
e|-0----0---0--0--0--0---0--------------------------0-0-0--0----|
B|-1----1---3--0--1--1---1--1p0h1p0-----------------0-0-1--1----|
G|-2----2---4--0--2--2---2---------2p0--------------0-0-2--2----|
D|-2----3---5--2--2--3---2-------------2~----5-3--5-2---2--3----|
A|-0----3---0--2--0--3---0----------------0~-5-3--5-2---0--3----|
E|-0----0---3--0--0--0---0-------------------3-1--3-0---0--0----|

Riff/Chorus:
e|----------------3-0----------|
B|-2/-10---13-12------3--------|
G|-1/-9----12-12---------------| X2
D|-2/-10---14-12---------------|
A|-----------------------------|
E|-----------------------------|

Verse 3:
e|-0x--1x--3x--0x--0x--0x--0----------3-0---0-0--0-0--0----|
B|-0x--1x--3x--0x--1x--1x--1-----8b---3-1---3-0--0-1--1----|
G|-5x--2x--4x--0x--2x--2x--2-------2--0-2---4-0--0-2--2----|
D|-7x--3x--5x--2x--2x--3x--2----------0-3---5-2--2-2--3----|
A|-7x--3x--5x--2x--0x--3x--0----------2-3---5-2--2-0--3----|
E|-5x--1x--3x--0x--0x--0x--0----------3-0---0-0--0-0--0----|

Bridge:
e|----------------------------------------------------|
B|-------5-3-------5-3---------5-3------5-3-1~--------|
G|-------5-4-------5-4-2-------5-4------5-4-2~--------| X2
D|--7p5-------7p5------2--7p5------7p5----------------|
A|-----7---------7-----------7--------7---------------|
E|----------------------------------------------------|

e|-0~-0~-3-0~--0~-------------------------------------|
B|-1~-3~-0-1~--3~-------------------------------------|
G|-2~-4~-0-2~--4~-------------------------------------|
D|-3~-5~-0-3~--5~-------------------------------------|
A|-------2-3~--5~-------------------------------------|
E|-------3-0~--0~-------------------------------------|

Solo:
e|-3-1-0--------------------3-1-0----------------------|
B|-------3-5-3~-------------------3-1------------------|
G|--------------5-4-5-7-7~-----------------------------|
D|-----------------------------------------------------|
A|-----------------------------------------------------|
E|-----------------------------------------------------|

Final Riff/Chorus:
e|----------------3-0----------|
B|-2/-10---13-12------3--------|
G|-1/-9----12-12---------------| X4
D|-2/-10---14-12---------------|
A|-----------------------------|
E|-----------------------------|

************************************

| /   slide up
| \   slide down
| h   hammer-on
| p   pull-off
| ~   vibrato
| +   harmonic
| x   Mute note
| b   Bend
| pb  Pre-bend
| br  Bend release
| pbr Pre-bend release
| brb Bend release bend

************************************
Добавлено: 02.05.2015
Другие материалы по этой песне:
  • Аккорды и текст

Страница создана 02.05.2015
http://primanota.ru/dawes/i-cant-think-about-it-now-chords.htm
Привет, Гость.
Предлагаем пройти революционный курс по гитаре.
Подарок от PrimaNota.Ru, забирай!