PrimaNota.ru - самый крупный в мире бесплатный архив песенных текстов, аккордов, табулатур и нот


Dawes - Hey Lover - таба, видео

Регистрация Запомнить меня
Войти через:  Facebook Google Twitter Vk Yandex Mail.ru

Dawes - Hey Lover - таба, видео

Печатать
Просмотров: 161
-------------------------------------------------------------------------------
                                   HEY LOVER - Dawes
-------------------------------------------------------------------------------

Tabbed by: Macheeoo
E-mail: macheeoo@yahoo.com

Tuning: Standard

This is an awesome cover of a Blake Mills song. Dawes recorded it
on their album "Stories Don't End" (2013).



Chords to know!
     C   F   Em
e|---0---1---0---|
B|---1---1---0---|
G|---0---2---0---|
D|---2---3---2---|
A|---3---3---2---|
E|---X---1---0---|


Intro Solo:   x4
e|---------------------------------------------|
B|------5--8-8-5--8-8-5--8-8~--8-6-5-----------|
G|------------------------------------7-5~-----|
D|---------------------------------------------|
A|---------------------------------------------|
E|---------------------------------------------|


C                         F
Summer plays a solo on a saxophone
           C                              F
Oh you've never seen somebody throw their head so slow
              C                            F
And I see her cringe your lips and drop an ear that way
          C                                F
Scratch a dog behind its ear and it might do the same

    C          F
Hey Lover, hey Lover
    C          F
Hey Lover, hey Lover


C                            F
Blue and white racing stripe pick-up truck
     C                             F
And when did I decide to grow this beard and gut?
         C                               F
Well, I may be white but I don't like my people much
              C                             F
But I want to raise with you and watch our young-lings hatch,
         C                              F
Fucking make the first letters of their first names match

    C          F
Hey Lover, hey Lover
    C          F
Hey Lover, hey Lover


Intro Solo:   x2
e|---------------------------------------------|
B|------5--8-8-5--8-8-5--8-8~--8-6-5-----------|
G|------------------------------------7-5~-----|
D|---------------------------------------------|
A|---------------------------------------------|
E|---------------------------------------------|


         C                              F
Well I'm back into the boring life that I once led
          C                         F
Stuffing white spread asshole on a sofa bed
            C                         F
Sometimes I hate myself for trying to be so bold
     C                             F
But nothing ever seems to get this story told

    C          F
Hey Lover, hey Lover
    C          F
Hey Lover, hey Lover


Solo 2:
e|-----------12------------12b(13)-/15\13~---12\8------------13~--13~--------|
B|---12b(13)----(13)b12~--------------------------8-8~-----------------12~---|
G|--------------------------------------------------------12---12---12-------|
D|---------------------------------------------------------------------------|
A|---------------------------------------------------------------------------|
E|---------------------------------------------------------------------------|
 |
e|------13~--12~-----------------------|
B|----------------13~--8/10~-----------|
G|---12---12---12------9/10~-----------|
D|-------------------------------------|
A|-------------------------------------|
E|-------------------------------------|



  C                                F
I never tell her when she plays a song I never heard
          C                             F
Because I always learn the music and forget the words
               C                         F
But I want to ride with her and I wish I sung that well
     Em                                F
Just copy, paste, Google search, and send it to myself

    C          F
Hey Lover, hey Lover
    C          F
Hey Lover, hey Lover

    C          F
Hey Lover, hey Lover
    Em         F
Hey Lover, hey Lover


End Solo:
e|---------------------------------------------------------------------------|
B|---13~-13~--13-13-12-10----------------13~-13~-13-12-10--------------------|
G|------------------------12-10---------------------------12-10--------------|
D|------------------------------12-10~--------------------------12-10~-10~---|
A|---------------------------------------------------------------------------|
E|---------------------------------------------------------------------------|
 |
e|---------------------------------------------12~---------------------------|
B|---13/15-13~-13-12-10---------------13/15-13-----13-12-10------------------|
G|----------------------12-10-------------------------------12---------------|
D|----------------------------12-10~---------------------------12-10~--------|
A|---------------------------------------------------------------------------|
E|---------------------------------------------------------------------------|


END!!!
Добавлено: 09.07.2013
Другие материалы по этой песне:
  • Аккорды и текст

Страница создана 09.07.2013
http://primanota.ru/dawes/hey-lover-chords.htm
Привет, Гость.
Предлагаем пройти революционный курс по гитаре.
Подарок от PrimaNota.Ru, забирай!