PrimaNota.ru - самый крупный в мире бесплатный архив песенных текстов, аккордов, табулатур и нот


Dawes - From A Window Seat - таба, видео

Регистрация Запомнить меня
Войти через:  Facebook Google Twitter Vk Yandex Mail.ru

Dawes - From A Window Seat - таба, видео

Печатать
Просмотров: 121
Dawes - 'From a Window Seat'

Tabbed by Colin


INTRO/VERSE
|--------------------------------------------------3-3-3-3---|
|---5-3-5-3----5-3-5--------3-----5-3-5-3---5-3-5--3-3-3-3---|
|---4-2-4-2----4-2-4------2-------5-4-5-4---5-4-5--4-4-4-4---|
|---5-4-5-4----5-4-5----4---------5-5-5-5---5-5-5--5-5-5-5---|
|---------------------2--------3----------3--------5-5-5-5---|
|-0----------0-------------------------------------3-3-3-3---|


|-------------------------------------------------------------------|
|----5--3--5--3-----5--3--5--3--3--3--3-----5--3--5--3-----5--3--5--|
|----5--4--5--4-----5--4--5--2--2--2--2-----4--2--4--2-----4--2--4--|
|----7--5--7--5-----7--5--7--4--4--4--4-----5--4--5--4-----5--4--5--|
|-0--------------0-----------2--2--2--2-----------------------------|
|----------------------------------------0--------------0-----------|


|--------------|
|-3--3--3--3---|
|-2--2--2--2---|
|-4--4--4--4---|
|-2--2--2--2---|
|--------------|


CHORUS
|-12-12-10-7-3-3--3-3-3-3-3-3-3-3----|
|-12-12-10-8-5-5--5-5-5-5-5-5-5-5----|
|-12-12-11-9-5-5--4h5-5-5-4h5-5-5----|
|-----------------0-0-0-0-0-0-0-0----|
|------------------------------------|
|------------------------------------|


|-12-12--10--7--3-|-3-3-3-3-3--3-3-|-3-3--------|
|-12-12--10--8--5-|-5-5-5-5-5--5-5-|-5-5---2----|
|-12-12--11--9--5-|-5-4h5-5-5--4h5-|-5-5---2----|
|-----------------|---0-0-0-0--0-0-|-0-0---2----|
|-----------------|----------------|------------|
|-----------------|----------------|------------|


|-12-12--10--7--3-3-0-3-3-3--0-3-3--2-2----0-(0)----|
|-12-12--10--8--5-5-0h1-1-1--0h1-1--3-3----0-(0)----|
|-12-12--11--9--5-5-0-0-0-0--2-2-2--2-2----0-(0)----|
|-------------------2-2-2-2--2-2-2--4-4----2-(2)----|
|-------------------3-3-3-3---------2-2----2-(2)----|
|----------------------------------------0-0-(0)----|
Добавлено: 19.11.2013
Другие материалы по этой песне:
  • Аккорды и текст

Страница создана 19.11.2013
http://primanota.ru/dawes/from-a-window-seat-chords.htm
Привет, Гость.
Предлагаем пройти революционный курс по гитаре.
Подарок от PrimaNota.Ru, забирай!