PrimaNota.ru - самый крупный в мире бесплатный архив песенных текстов, аккордов, табулатур и нот


Davina And The Vagabonds - River - бас-таба, видео

Регистрация Запомнить меня
Войти через:  Facebook Google Twitter Vk Yandex Mail.ru

Davina And The Vagabonds - River - бас-таба, видео

Печатать
Просмотров: 67
Уроки эстрадного вокала в Санкт-Петербурге
Davina and The vagabonds

River
(Album : Black cloud)

Bass Tabs
Tuning : EADG
Tempo: 141 bpm
Key signature: C


Intro: 00:01
Slow Brass / Piano playing
G|------------|------------|-------------|
D|------------|------7-10g-|------9-10g--|
A|------7-10g-|7/8g--------|9/10g--------|
E|7/8g--------|------------|-------------|

G|------------|------------|-------------|
D|------------|------------|-------------|
A|--8/--------|------------|-------------|
E|----8g------|--8-8-8-8---|----10g/-----|


Verse1: 00:21
G|---------------------||----------------------|
D|-------------10-8-7--||----7--10g------------|
A|----7-10--10---------||-8g----------10-8-7---|
E|-8g------------------||----------------------|
I'm so, oh, sorry
Sorry my Babe
G|---------------------||-----------------------|
D|---------------------||-----------10-7----10--|
A|----7-10---7-----10g-||----7-10g-------8------|
E|-8g----------10g-----||-8g--------------------|
I didn't mean to do you... do you wrong
I will take myself to the river
G|-----------------------|
D|-----------------------|
A|----7-10g--7-------10g-|
E|-8g----------8---------|
Take myself to the river... to pray
And if that don't work
I will sail along

Chorus: 01:04
G|--------------------||-----------------------|
D|-----7--10g----7----||-----------------------|
A|-8g-----------------||-----7--10g------------|
E|--------------------||-8g--------------------|
I didn't mean to hurt you
I'm just made that way
G|--------------------||------------------------|
D|--------------------||----7-10g--7------------|
A|----7-10---7-----10-||-8g--------------7--10--|
E|-8g----------10g----||-------------8g---------|
I was born with a sad... sad soul
Please forgive me
G|------------------------|
D|------------------------|
A|----7-10g--7-------10g--|
E|-8g----------8----------|
I've been crying all day
And without you
My heart ain't whole


Bridge: 01:44
Slow Brass / Piano playing
G|------------|------------|-------------|
D|------------|------7-10g-|------9-10g--|
A|------7-10g-|7/8g--------|9/10g--------|
E|7/8g--------|------------|-------------|

G|------------|------------|-------------|
D|------------|------------|-------------|
A|--8/--------|------------|-------------|
E|----8g------|--8-8-8-8---|----10g/-----|


Verse2: 02:04
G|---------------------||---------------------|
D|-------------10-8-7--||----7--10g-----------|
A|----7-10--10---------||-8g---------10-8-7---|
E|-8g------------------||---------------------|
Oh river, oh river, Wash this pain away
Oh river, oh river
Take away all these mistakes I've made
G|---------------------||-----------------------|
D|---------------------||-----------10-7----10--|
A|----7-10---7-----10g-||----7-10g-------8------|
E|-8g----------10g-----||-8g--------------------|
 Oh river, oh River
Put a smile on his face again
G|------------------------|
D|------------------------|
A|----7-10g--7-------10g--|
E|-8g----------8----------|
And if that don't work
I swear, I swear,
I will sail along


Instrumental: 02:47
G|--------------------||-----------------------|
D|-----7--10g------7--||-----------------------|
A|-8g-----------------||--------7--10g---------|
E|--------------------||-8g--------------------|

G|--------------------||------------------------|
D|--------------------||----7-10g--7------------|
A|----7-10---7-----10-||-8g--------------7--10--|
E|-8g----------10g----||-------------8g---------|

G|------------------------|
D|------------------------|
A|----7-10g--7-------10g--|
E|-8g----------8----------|

Bridge: 03:24
Slow Brass / Piano playing
G|------------|------------|-------------|
D|------------|------7-10g-|------9-10g--|
A|------7-10g-|7/8g--------|9/10g--------|
E|7/8g--------|------------|-------------|

G|------------|------------|-------------|
D|------------|------------|-------------|
A|--8/--------|------------|--------6----|
E|----8g------|--8-8-8-8---|----10.------|


Break: 03:44
G|------------|------------|-------------|
D|------------|------------|-------------|
A|-7-7-7-7----|-7-7-7-7----|-------------|
E|------------|------------|-8-8-8-8-----|
I'm on my knees in the water
Choking and fighting with all my might
G|------------|------------|-------------|
D|------------|------------|-------------|
A|------------|-7-7-7-7----|-8-8-8-8-----|
E|-8-8-8-8----|------------|-------------|
I'm on my knees in the water
Just trying to make it right
G|------------|-------------|
D|------------|-------------|
A|------------|-------------|
E|-10-10-10-10|-10g---------|

Verse3:
G|---------------------||---------------------|
D|-------------10-8-7--||----7--10g-----------|
A|----7-10--10---------||-8g---------10-8-7---|
E|-8g------------------||---------------------|
I'm so, oh, sorry
I'm so sorry my Babe
G|---------------------||-----------------------|
D|---------------------||-----------10-7----10--|
A|----7-10---7-----10g-||----7-10g-------8------|
E|-8g----------10g-----||-8g--------------------|
I didn't... I didn't mean to do... you wrong
I will take myself to the river
G|----------------------|
D|----------------------|
A|----7-10g--7----------|
E|-8g----------8.-------|
Take myself to the river... to pray
And if that don't work... I swear
I will sail along

Outro:
Slow Brass / Piano playing
G|------------|------------||
D|------------|------------||
A|--10g-------|------------||
E|------------|--8g--------||
I will sail along
Oh,oh...

End: 04:59

Tablature Legend ----------------
| S  slap
| P  pop
| x  mute note
| /  slide up
| \  slide down
| .  full stop
| h  hammer-on
| p  pull-off
| g  grace note
| ~  vibrato
| ^  brush up


C (ref scale)
G|--------------------||---------------------|
D|--------7-10-7------||--------7-10-7-------|
A|---7-10--------10-7-||---7-10--------10-7--|
E|-8------------------||-8-------------------|

G|--------7-10-7------||--------7-10-7-------|
D|---7-10--------10-7-||---7-10--------10-7--|
A|-8------------------||-8-------------------|
E|--------------------||---------------------|

G|--------------------||---------------------|
D|--------7-10-7------||--------7-10-7-------|
A|---7-10--------10-7-||---7-10--------10-7--|
E|-8------------------||-8-------------------|

G|---------9-12-9-------||---------9-12-9--------|
D|----9-12--------12-9--||----9-12--------12-9---|
A|-10-------------------||-10--------------------|
E|----------------------||-----------------------|

G|--------7-10-7------||--------7-10-7-------|
D|---7-10--------10-7-||---7-10--------10-7--|
A|-8------------------||-8-------------------|
E|--------------------||---------------------|

G|--------------------||---------------------|
D|--------7-10-7------||--------7-10-7-------|
A|---7-10--------10-7-||---7-10--------10-7--|
E|-8------------------||-8-------------------|
Добавлено: 24.12.2015
Вам также может быть интересно:
Другие материалы по этой песне:
  • Аккорды и текст

Страница создана 24.12.2015
http://primanota.ru/davina-and-vagabonds/river-chords.htm
Привет, Гость.
Предлагаем пройти революционный курс по гитаре.
Подарок от PrimaNota.Ru, забирай!