PrimaNota.ru - самый крупный в мире бесплатный архив песенных текстов, аккордов, табулатур и нот


Davina And The Vagabonds - Lipstick And Chrome - бас-таба, видео

Регистрация Запомнить меня
Войти через:  Facebook Google Twitter Vk Yandex Mail.ru

Davina And The Vagabonds - Lipstick And Chrome - бас-таба, видео

Печатать
Просмотров: 38
Davina and The vagabonds

Lipstick and Chrome

Bass Tabs
Tuning : EADG
Tempo: 120 bpm
Key: G

Intro: 00:00
G|------------------|-
D|- Piano (Davina) -|-
A|------------------|-
E|------------------|-

Verse1: 00:04 (bass starts)
G|-----------|-----------||---------2-|---------2-|-
D|---------2-|---------2-||---2-2-5---|---2-2-5---|-
A|---2-2-5---|---2-2-5---||-3---------|-3---------|- 
E|-3---------|-3---------||-----------|-----------|-
I've got a swing in my step
Nothing could go wrong

G|---------4-|---------2-|-
D|---4-4-7---|---2-2-5---|-
A|-5---------|-3---------|-
E|-----------|-----------|-
I've got a pocket full of money
G|-----------|---------|----------|-
D|---------2.|-5-3-2---|----------|-
A|---2-2-5---|-------5-|-5-3-2----|-
E|-3---------|---------|-------(3)|-
And a head full of dancing songs


Verse2: 00:20
G|-----------|-----------||---------2-|---------2-|-
D|---------2-|---------2-||---2-2-5---|---2-2-5---|-
A|---2-2-5---|---2-2-5---||-3---------|-3---------|- 
E|-3---------|-3---------||-----------|-----------|-
Well let's all go down to George town
Where the goods are gettin' all used up

G|---------4-|---------2-|-
D|---4-4-7---|---2-2-5---|-
A|-5---------|-3---------|-
E|-----------|-----------|-
Let's dance till our feet get tired 
G|-----------|---------|----------|-
D|---------2.|-5-3-2---|----------|-
A|---2-2-5---|-------5-|-5-3-2----|-
E|-3---------|---------|-------(3)|-
And the soda pours out of our cups


Chorus1: 00:36
G|-----------|-----------||---------2-|---------2-|-
D|---------2-|---------2-||---2-2-5---|---2-2-5---|-
A|---2-2-5---|---2-2-5---||-3---------|-3---------|- 
E|-3---------|-3---------||-----------|-----------|-
No no no no, nothing 
Nothing couldn't go wrong

G|---------4-|---------2-|-
D|---4-4-7---|---2-2-5---|-
A|-5---------|-3---------|-
E|-----------|-----------|-
Just follow me, Babe can't you see
G|-----------|---------|----------|-
D|---------2.|-5-3-2---|----------|-
A|---2-2-5---|-------5-|-5-3-2----|-
E|-3---------|---------|-------(3)|-
I was meant to be the girl of your dreams


Chorus2: 00:52
G|-----------|-----------||---------2-|---------2-|-
D|---------2-|---------2-||---2-2-5---|---2-2-5---|-
A|---2-2-5---|---2-2-5---||-3---------|-3---------|- 
E|-3---------|-3---------||-----------|-----------|-
No no, no no, nothing, oooh
Nothing could go wrong

G|---------4-|---------2-|-
D|---4-4-7---|---2-2-5---|-
A|-5---------|-3---------|-
E|-----------|-----------|-
Don't stop hugging me, oh oh or loving me
G|-----------|---------|----------|-
D|---------2.|-5-3-2---|----------|-
A|---2-2-5---|-------5-|-5-3-2----|-
E|-3---------|---------|-------(3)|-
I'm right here boy, the girl of your dreams


Intrumental (piano): 01:08 (Play X2)
G|---------|---------|---------|-
D|---------|---------|---------|-
A|---2-2-5.|-5-3-2---|---2-2-5.|- 
E|-3-------|-------3-|-3-------|-

G|---------|-------2-|---------2-|-
D|---------|-2-2-5---|---2-2-5---|-
A|-5-3-2-3-|---------|23---------|- 
E|---------|---------|-----------|-

G|---------4-|---------2-|-
D|---4-4-7---|---2-2-5---|-
A|45---------|23---------|-
E|-----------|-----------|-

G|-----------|---------|----------|-
D|---------2.|-5-3-2---|----------|-
A|---2-2-5---|-------5-|-5-3-2----|-
E|23---------|---------|-------(3)|-


Verse3: 01:40
G|-----------|-----------||---------2-|---------2-|-
D|---------2-|---------2-||---2-2-5---|---2-2-5---|-
A|---2-2-5---|---2-2-5---||-3---------|-3---------|- 
E|-3---------|-3---------||-----------|-----------|-
Well now don't you worry Babe
I made all my friends to stay home

G|---------4-|---------2-|-
D|---4-4-7---|---2-2-5---|-
A|-5---------|-3---------|-
E|-----------|-----------|-
It's just a you and me
Boy, the way I dreamed
G|-----------|---------|----------|-
D|---------2.|-5-3-2---|----------|-
A|---2-2-5---|-------5-|-5-3-2----|-
E|-3---------|---------|-------(3)|-
I dance for a lipstick and chrome


Verse4: 01:56
G|-----------|-----------||---------2-|---------2-|-
D|---------2-|---------2-||---2-2-5---|---2-2-5---|-
A|---2-2-5---|---2-2-5---||-3---------|-3---------|- 
E|-3---------|-3---------||-----------|-----------|-
Well I say, I've got a swing in my step
Oooh, nothing couldn't go wrong

G|---------4-|---------2-|-
D|---4-4-7---|---2-2-5---|-
A|-5---------|-3---------|-
E|-----------|-----------|-
I've got a mouth full of honey
G|-----------|---------|----------|-
D|---------2.|-5-3-2---|----------|-
A|---2-2-5---|-------5-|-5-3-2----|-
E|-3---------|---------|-------(3)|-
And a head full of sassy songs


Chorus3: 02:12
G|-----------|-----------||---------2-|---------2-|-
D|---------2-|---------2-||---2-2-5---|---2-2-5---|-
A|---2-2-5---|---2-2-5---||-3---------|-3---------|- 
E|-3---------|-3---------||-----------|-----------|-
No no no no nothing, 
Nothing couldn't go wrong

G|---------4-|---------2-|-
D|---4-4-7---|---2-2-5---|-
A|-5---------|-3---------|-
E|-----------|-----------|-
Don't stop hugging me, oh oh or loving me
G|-----------|---------|----------|-
D|---------2.|-5-3-2---|----------|-
A|---2-2-5---|-------5-|-5-3-2----|-
E|-3---------|---------|-------(3)|-
I'm right here boy, the girl of your dreams
No no 


Verse5: 02:29 
G|-----------|-----------||---------2-|---------2-|-
D|---------2-|---------2-||---2-2-5---|---2-2-5---|-
A|---2-2-5---|---2-2-5---||-3---------|-3---------|- 
E|-3---------|-3---------||-----------|-----------|-
For you better throw out that watch
Coz things are gonna move real fast

G|---------4-|---------2-|-
D|---4-4-7---|---2-2-5---|-
A|-5---------|-3---------|-
E|-----------|-----------|-
The moon is jumping over the mountains
G|-----------|---------|----------|-
D|---------2.|-5-3-2---|----------|-
A|---2-2-5---|-------5-|-5-3-2----|-
E|-3---------|---------|-------(3)|-
And the sun will be coming in last


Verse6: 02:44
G|-----------|-----------||---------2-|---------2-|-
D|---------2-|---------2-||---2-2-5---|---2-2-5---|-
A|---2-2-5---|---2-2-5---||-3---------|-3---------|- 
E|-3---------|-3---------||-----------|-----------|-
Darling, it's come to that time of the evening
When I hope to get a goodnight kiss

G|---------4-|---------2-|-
D|---4-4-7---|---2-2-5---|-
A|-5---------|-3---------|-
E|-----------|-----------|-
I want to steal away, remember today
G|-----------|---------|----------|-
D|---------2.|-5-3-2---|----------|-
A|---2-2-5---|-------5-|-5-3-2----|-
E|-3---------|---------|-------(3)|-
Dream of you, but and remember this


Chorus4: 03:00 
G|-----------|-----------||---------2-|---------2-|-
D|---------2-|---------2-||---2-2-5---|---2-2-5---|-
A|---2-2-5---|---2-2-5---||-3---------|-3---------|- 
E|-3---------|-3---------||-----------|-----------|-
No no, no no, nothing, oooh
Nothing could've go wrong

G|---------4-|---------2-|-
D|---4-4-7---|---2-2-5---|-
A|-5---------|-3---------|-
E|-----------|-----------|-
Just follow me, Babe can't you see
G|-----------|---------|----------|-
D|---------2.|-5-3-2---|----------|-
A|---2-2-5---|-------5-|-5-3-2----|-
E|-3---------|---------|-------(3)|-
I was meant to be the girl of your dreams


Outro: 03:17
G|-----------|-----------||---------2-|---------2-|-
D|---------2-|---------2-||---2-2-5---|---2-2-5---|-
A|---2-2-5---|---2-2-5---||-3---------|-3---------|- 
E|-3---------|-3---------||-----------|-----------|-
No no, no no, nothing, oooh
Nothing could've go wrong

G|---------4-|---------2-|-
D|---4-4-7---|---2-2-5---|-
A|-5---------|-3---------|-
Don't stop hugging me, ho or loving me
G|-----------||---------||---------||-------------|-
D|---------2.||-5-3-2---||---------||----------5~-|-
A|---2-2-5---||-------5-||-5-3-2---||--------5----|-
E|-3---------||---------||-------5-||-5-4-3-------|-
I'm right here boy, the girl of your dreams...


End: 03:27

Tablature Legend ----------------  
| S  slap 
| P  pop 
| x  mute note
|(3) linked note  
| /  slide up 
| \  slide down 
| .  full stop
| h  hammer-on 
| p  pull-off 
| g  grace note 
| ~  vibrato 
| ^  brush up
Добавлено: 24.12.2015
Вам также может быть интересно:
Другие материалы по этой песне:
  • Аккорды и текст

Страница создана 24.12.2015
http://primanota.ru/davina-and-vagabonds/lipstick-and-chrome-chords.htm
Привет, Гость.
Предлагаем пройти революционный курс по гитаре.
Подарок от PrimaNota.Ru, забирай!