PrimaNota.ru - самый крупный в мире бесплатный архив песенных текстов, аккордов, табулатур и нот


Davids Lyre - English Roses - таба, видео

Регистрация Запомнить меня
Войти через:  Facebook Google Twitter Vk Yandex Mail.ru

Davids Lyre - English Roses - таба, видео

Печатать
Просмотров: 100
-----------------------------------------------------------------
English Roses  Davids Lyre
-----------------------------------------------------------------

Tuning: Standard

Intro

e|--11-p-9---11---11--|--11-p-9---11---11--|--11-p-9---11---11---11---11--7-|
B|---9---9---12---12--|---9---9---12---12--|---9---9---12---12---9----9---7-|
G|---9---9---11---11--|---9---9---11---11--|---9---9---11---11---9----9---6-|
D|---9---9---13---13--|---9---9---13---13--|---9---9---13---13---9----9---9-|
A|---9---9---11---11--|---9---9---11---11--|---9---9---11---11---9----9---9-|
E|---x---x---x----x---|---x---x---x----x---|---x---x---x----x----x----x---7-|

Verse

e|--11-p-9---11---11--|--11-p-9---11---11--|
B|---9---9---12---12--|---9---9---12---12--|
G|---9---9---11---11--|---9---9---11---11--|
D|---9---9---13---13--|---9---9---13---13--|
A|---9---9---11---11--|---9---9---11---11--|
E|---x---x---x----x---|---x---x---x----x---|


e|--11-p-9---11---11---11-p-9--7---7|
B|---9---9---12---12---9----9--7---7|
G|---9---9---11---11---9----9--6---6|
D|---9---9---13---13---9----9--9---9|
A|---9---9---11---11---9----9--9---9|
E|---x---x---x----x----x----x--7---7|

Pre-Chorus 

e|-----------------------|-----------------------|---------------------|
B|-----------------------|-----------------------|---------------------|
G|-----------------------|-----------------------|---------------------|
D|---------4---------2---|---------4---------2---|---------4---------2-|
A|------4---------2------|------4---------2------|------4---------2----|
E|---2--------0----------|---2--------0----------|---2--------0--------|

e|----------------------------------------------|
B|----------------------------------------------|
G|--------------1-1-1-1-1-1-1-1-1-1-1-1-1-1-1---|
D|---------4----2-2-2-2-2-2-2-2-2-2-2-2-2-2-2---|
A|------4-------2-2-2-2-2-2-2-2-2-2-2-2-2-2-2---|
E|---2----------0-0-0-0-0-0-0-0-0-0-0-0-0-0-0---|

Chorus

e|---4---|---4---|---4---|---2---|
B|---5---|---5---|---4---|---2---|
G|---6---|---6---|---4---|---3---|
D|---6---|---6---|---6---|---4---|
A|---4---|---4---|---6---|---4---|
E|---x---|---x---|---4---|---2---|

Intro: x2
Verse: x4
Pre-Chorus: x1
Chorus: x2
Intro: x2
Verse: x4
Pre-Chorus: x1
Chorus: X4
Intro: x2

| p  pull-off
| x  Mute note

Добавлено: 12.10.2013
Вам также может быть интересно:
Другие материалы по этой песне:
  • Аккорды и текст

Страница создана 12.10.2013
http://primanota.ru/davids-lyre/english-roses-chords.htm
Привет, Гость.
Предлагаем пройти революционный курс по гитаре.
Подарок от PrimaNota.Ru, забирай!