PrimaNota.ru - самый крупный в мире бесплатный архив песенных текстов, аккордов, табулатур и нот


Davide Van De Sfroos - Foemm E Profoemm - таба, видео

Регистрация Запомнить меня
Войти через:  Facebook Google Twitter Vk Yandex Mail.ru

Davide Van De Sfroos - Foemm E Profoemm - таба, видео

Печатать
Просмотров: 88
		   Testo a cura di Alberto Valli
Accordi e tablatura: Raffaele Grimaldi

FOEMM E PRUFOEMM

[INTRO]
e----------|
B----------|
G-12-12/14-|
D-12-12/14-|
A----------|
E----------|

e--------------|--------------|-----------15-12-----------------|
B--------------|--------------|-----------------15-12-----------|
G-14˜-12----12-|-14˜-12----12-|-14˜-12----------------14-12˜----|
D--------14----|--------14----|--------14--------------------14-|
A--------------|--------------|---------------------------------|
E--------------|--------------|---------------------------------|

SOL DO SOL RE

SOL         DO    SOL             RE
Föemm e pruföemm deent in de la stànza
 SOL     DO       SOL       RE
söel bancòn la butèglia la danza
      LAm                        DO             SOL
cumé ràtt in de la nòcc ciàpum scià quèll che avanza
   LAm           DO       SOL
büceer cumé öcc senza speranza...

      SOL           DO         SOL          RE
Quèll là cul lecca lecca el fasèva el legiunàri
    SOL          DO        SOL            RE
el parla de par lüü e cui Saant del calendàri
 LAm                DO                 RE
füma i Naziunaaj e diis che va mai in lècc
       LAm                     DO              RE
per pagüra di ricòrdi che ghe sòlten föe del spècc

SOL        DO   
Föemm e pruföemm

[RIFF 1]
SOL                           RE
e----------------------------|---------------------------|
B-------15-------15-------15-|-------15-------15---------|
G-14/16----14/16----14/16----|-14/16----14/16------------|
D----------------------------|---------------------------|
A----------------------------|---------------------------|
E----------------------------|---------------------------|


SOL         DO    SOL   RE
Föemm e pruföemm  [RIFF 1]

      MIm                         DO           SOL
Quai vöen prèma de beev el fà el segnu de la cruus
      MIm                      DO           SOL
quai vöen stravàcca tütt e bestèma a bassa vuus
   LAm                         DO                SOL
i tètt de la barista hann scrivüü fin tropp 'ì stòri
   LAM                        DO                    SOL
caramèll e totocalcio e giugaduu cun scià el sètt d'ori


Föemm e pruföemm deent in de la stànza

söel bancòn la butèglia la danza

cumé ràtt in de la nòcc ciàpum scià quèll che avanza

büceer cumé öcc senza speranza...
                                                 
					(giro di accordi)

Giacumènn giachètta a quadri innaanz e indree del gabinett

Mariu Mosca el paar che noda in di pàgin di Gazzètt

i henn giurnaad giammò sciüsciàa, fiaschi senza fuund 

radiulèna cul catàrr che scarcàja e cerca i uund


Föemm e pruföemm

Föemm e pruföemm


El Tugnèn l'ha faa la guèra scundüü in una cantèna

l'Orzowei l'è naa in Francia e l'ha spusaa 'na marucchèna

se vàrda un poo el suffìtt, se vàrda un poo i piastrèll

ma quaand passa la barìsta... se vàrda sempru quèll... 


















     
Добавлено: 26.08.2013
Вам также может быть интересно:
Другие материалы по этой песне:
  • Аккорды и текст

Страница создана 26.08.2013
http://primanota.ru/davide-van-de-sfroos/foemm-e-profoemm-chords.htm
Привет, Гость.
Предлагаем пройти революционный курс по гитаре.
Подарок от PrimaNota.Ru, забирай!