PrimaNota.ru - самый крупный в мире бесплатный архив песенных текстов, аккордов, табулатур и нот


David - Wild At Heart - бас-таба, видео

Регистрация Запомнить меня
Войти через:  Facebook Google Twitter Vk Yandex Mail.ru

David - Wild At Heart - бас-таба, видео

Печатать
Просмотров: 137
Уроки эстрадного вокала в Санкт-Петербурге
David ^Ö Wild at heart

There^Òs no bass guitar during the intro and verse.

Chorus:
|---------------------|
|---------------------|
|-3-3-----------------|
|------1-1^×-5-5^×-3-3--|

During solo:
|--------------------------------------------------|
|--------------------------------------------------|
|-5-5-5-5-5-5-5---------------5-5-5-5-5-5-5--------|
|---------------1-1-1-1-1-1-1---------------1---3--|

That^Òs it!
Just repeat the riffs as many times as necessary.

     
Добавлено: 07.08.2013
Другие материалы по этой песне:
  • Аккорды и текст

Страница создана 07.08.2013
http://primanota.ru/david/wild-at-heart-chords.htm
Привет, Гость.
Предлагаем пройти революционный курс по гитаре.
Подарок от PrimaNota.Ru, забирай!