PrimaNota.ru - самый крупный в мире бесплатный архив песенных текстов, аккордов, табулатур и нот


David - What The Hell - аккорды и текст, бас-таба, видео

Регистрация Запомнить меня
Войти через:  Facebook Google Twitter Vk Yandex Mail.ru

David - What The Hell - аккорды и текст, бас-таба, видео

Печатать
Просмотров: 92
What The Hell
David
David ^Ö What the hell

Intro/Verse:
Acoustic guitar              (el. Guitar)
  B     G                       G  A
|------------------|          |--------|
|------------------|          |--------|
|-4-4-4------------|Repeat    |--------|
|-4-4-4-5-5-5-5-5--|as        |-5^×-7---|
|-2-2-2-5-5-5-5-5--|necessary |-5--7---|
|-------3-3-3-3-3--|          |-3--5---|

Acoustic guitar plays the chords
  A    Em   G
|----------------|
|----------------|
|------9...------|
|-7...-9...-5...-|
|-7...-7...-5...-|
|-5...------3...-|

Chorus:
(El.Guitar)
  D   A    B   G
|------------------|
|------------------|
|-7-7------4-4-----|
|-7-7-7-7--4-4-5-5-|
|-5-5-7-7--2-2-5-5-|
|-----5-5------3-3-|

I think that^Òs the most of it
Just listen to the song to get the rhythm...
     
Добавлено: 30.10.2013
Другие материалы по этой песне:
  • Аккорды и текст

Страница создана 15.06.2013
http://primanota.ru/david/what-the-hell-chords.htm
Привет, Гость.
Предлагаем пройти революционный курс по гитаре.
Подарок от PrimaNota.Ru, забирай!