PrimaNota.ru - самый крупный в мире бесплатный архив песенных текстов, аккордов, табулатур и нот


David Wise - Donkey Kong Country - Tree Tops Town - таба, видео

Регистрация Запомнить меня
Войти через:  Facebook Google Twitter Vk Yandex Mail.ru

David Wise - Donkey Kong Country - Tree Tops Town - таба, видео

Печатать
Просмотров: 94
-------------------------------------------------------------------------------
                 Donkey Kong Country Tree Tops Town - David Wise
-------------------------------------------------------------------------------
Tabbed by:aziz razavi
Email:azizrazavi@hotmail.com

Tuning:Standard

e|---11-11-10------------------------------------11-11-10-----15-15-13-15---|
B|-13--------13-11---------------------11--11-13---------13-11-----------13-|
G|----------------12-12-10-12--12-10-12--12---------------------------------|
D|---------------------------10---------------------------------------------|
A|--------------------------------------------------------------------------|
E|--------------------------------------------------------------------------|

e|-15-13-11-10-------------------------------------------------------------|
B|------------13-11-13-----------------------------------------------------|
G|-------------------------------------------------------------------------|
D|----------------------------------------------10-10-8-8-8-7-7-7-6-6-6-5--|
A|--------------------10-10-8-8-8--7-7-7-6-6-6-5-8--8-6-6-6-5-5-5-4-4-4-3--|
E|---------------------8--8-6-6-6--5-5-5-4-4-4-3---------------------------|

e|------------------------16------------------------------------------16--19-|
B|---16--18--16--18--16-18----16--18--16--18---------16--18--16--16-18--18---|
G|-17--17--17--17--17-------17--17--17--17--15-17--17--17--17--17------------|
D|-----------------------------------------------15--------------------------|
A|---------------------------------------------------------------------------|
E|---------------------------------------------------------------------------|

e|---20--19--20-------------|------------------------------------------------|
B|-18--18--18--18-----17-18-|---11--13--11--13--11--13--11--13--14--15--14---|
G|---------------17-19------|-12--12--12--12--12--12--12--12--12--12--12--12-|
D|--------------------------|------------------------------------------------|
A|--------------------------|------------------------------------------------|
E|--------------------------|------------------------------------------------|

e|---13-15---------------------------------------------|---16-16-15---------|
B|-15-----14-/-13-11-----------------------------------|-18--------18-16----|
G|------------------12-10-12-12------------------------|----------------17--|
D|-----------------------------5-7-7-5-5-4-4-----------|--------------------|
A|-----------------------------3-5-5-3-3-2-2-7-7-6-6-5-|--------------------|
E|-------------------------------------------5-5-4-4-3-|--------------------|

e|--------------------------------------------------------------------------|
B|-------------------16--16--18-18-18-18-18-18-18-----17-16--16-15--15-14---|
G|-17-15-17--17-15-17--17--17--------------------16-16-----16-----15-----14-|
D|---------15---------------------------------------------------------------|
A|--------------------------------------------------------------------------|
E|--------------------------------------------------------------------------|

e|----------------------------------|---18-18-17-------22-20-18-------------|
B|-14-13--13-12--11-----------------|-20--------20-18----------20-18-18-20--|
G|------13-----12--11-11-11-11-11---|----------------19---------------------|
D|----------------------------------|---------------------------------------|
A|----------------------------------|---------------------------------------|
E|----------------------------------|---------------------------------------|

e|----------------------------------------|-|
B|----------------------------------------|-|
G|-19-17------------17-18-18-15-/-17-15---|-|
D|------17--17-20-17-------------------17-|-|
A|--------20------------------------------|-|
E|----------------------------------------|-|

Enjoy!!!

| /  slide up
| \  slide down
| h  hammer-on
| p  pull-off
| ~  vibrato
| +  harmonic
| x  Mute note
===============================================================================
Добавлено: 21.05.2012
Другие материалы по этой песне:
  • Аккорды и текст

Страница создана 21.05.2012
http://primanota.ru/david-wise/donkey-kong-country-tree-tops-town-chords.htm
Привет, Гость.
Предлагаем пройти революционный курс по гитаре.
Подарок от PrimaNota.Ru, забирай!