PrimaNota.ru - самый крупный в мире бесплатный архив песенных текстов, аккордов, табулатур и нот


David Wilcox - Last Chance Waltz - аккорды и текст, таба, видео

Регистрация Запомнить меня
Войти через:  Facebook Google Twitter Vk Yandex Mail.ru

David Wilcox - Last Chance Waltz - аккорды и текст, таба, видео

Печатать
Просмотров: 127
Last Chance Waltz
David Wilcox
		   "Last Chance Waltz"

                      by David Wilcox

           transcription by Bill Boroson (3/18/95)


Tune: 6 = D

  D             Em7        A7sus4(add13)  D
     p                                   h
|---2\0-------|-----------0-|-----------0/2---------------|
|-------3-----|-------3-----|-----3-----3|----------------|
|-----------0-|---0---0-----|---0---0----|----2--------2--|
|---------4---|-----4---4---|---------4--|-----------0----|
|-------------|-------------|-0----------|----------------|
|-0-----------|-2-----------|------------|--0-------------|


  D               Em         A7sus4         D
     h p
|---0/2\0-------|-----------0-|----------h--|-------------|
|--------3------|-------3-----|-----3---2/3-|-------------|
|-------------0-|---0---0-----|---2---0-----|----------2--|
|-----------4---|-----4---4---|-------------|---0-----0---|
|---------------|-------------|-0-----------|--0----------|
|-0-------------|-2-----------|-------------|-0-----------|


  D             Em7        A7sus4(add13)  D
     p                                   h
|---2\0-------|-----------0-|-----------0/2---------------|
|-------3-----|-------3-----|-----3-----3|----------------|
|-----------0-|---0---0-----|---2---0----|----2--------2--|
|---------4---|-----4---4---|---------4--|-----------0----|
|-------------|-------------|-0----------|----------------|
|-0-----------|-2-----------|------------|--0-------------|


  D               Em7        A7sus4         D
      p
|----2\0--------|-----------0-|----------h--|-------------|
|--------3------|-------3-----|-----3---2/3-|-------------|
|-------------0-|---0---0-----|---0---0-----|-------------|
|-----------4---|-----4---4---|-------------|-------------|
|---------------|-------------|-0-----------|-------------|
|-0-------------|-2-----------|-------------|-0-----------|


  D                   D/F#                 G        A
|-------------------|-----------p--------|-------------------|
|---3----3---3----3-|--4----3--5\3-----3-|---3----3---2----2-|
|-----2--------2----|----2----------2----|-----0--------2----|
|----0-0------0-0---|---0-0--------0-0---|----0-0------2-2---|
|-------------------|--------------------|----------0--------|
|-0--------0--------|-4--------4---------|-5-----------------|
I'm standing before my old high school.  It's been 10 yrs since I

  Bm                       G
|--------------------------|-------------------------|
|---3-------3----3-------3-|---3-------3----3------3-|
|-------4------------4-----|-------0------------0----|
|-----4---4--------4---4---|-----0---0--------0---0--|
|-2------------2-----------|-------------------------|
|--------------------------|-5------------5----------|
touched the door.  But to heal the old pain we must

  D         Bm        Em7                  G           A
|---------------------|----------------------|----------------|
|--3------3--3------3-|--3------3---3------3-|------3------2--|
|-----2---------4-----|-----0----------0-----|--0-------------|
|---0---0-----4---4---|---2---2------2---2---|----0-----0-----|
|-----------2---------|----------------------|-------------0--|
|-0-------------------|-2---------2----------|-5------5-------|
face it again so I'll walk down that hallway once more.        I

  D                   D/F#                 G        A
|-------------------|-----------p--------|-------------------|
|---3----3---3----3-|--4----3--5\3-----3-|---3----3---2----2-|
|-----2--------2----|----2----------2----|-----0--------2----|
|----0-0------0-0---|---0-0--------0-0---|----0-0------2-2---|
|-------------------|--------------------|----------0--------|
|-0--------0--------|-4--------4---------|-5-----------------|
have come to this 10 yr reunion for my heart is still pris'ner of

  Bm                       G
|--------------------------|-------------------------|
|---3-------3----3-------3-|---3-------3----3------3-|
|-------4------------4-----|-------0------------0----|
|-----4---4--------4---4---|-----0---0--------0---0--|
|-2------------2-----------|-------------------------|
|--------------------------|-5------------5----------|
  war.             'n if I find it's alright we're es-

  D           Bm          Em7       Asus4
|-------------------------|-------------------------|
|---3-------3---3-------3-|---3-------3---3-------3-|
|-------2-----------4-----|-------0-----------2-----|
|-----0---0-------4---4---|-----2---2-------2---2---|
|-------------2-----------|-------------0-----------|
|-0-----------------------|-2-----------------------|
caping   tonight.      That's what I came back here

  D                                     D/C#
|-------------------------|-------------------------|
|---3-------3---3-------3-|---3-------3---3-------3-|
|-------2-----------2-----|-------2-----------2-----|
|-----0---0-------0---0---|-----0---0-------0---0---|
|-------------------------|-------------4-----------|
|-0-----------0-----------|-0-----------------------|
 for.      Won't you please waltz with me?         I

  D/B         D/A           G
|-------------------------|-------------------------|
|---3-------3---3-------3-|---3-------3---3-------3-|
|-------2-----------2-----|-------0-----------0-----|
|-----0---0-------0---0---|-----0---0-------0---0---|
|-2-----------0-----------|-------------------------|
|-------------------------|-5-----------5-----------|
feel like I'm just like I used to be               my

  G           G/F#          Em7
|-------------------------|-------------------0-----|
|---3-------3---3-------3-|---3-------3---3-------3-|
|-------0-----------0-----|-------0-----------------|
|-----0---0-------0---0---|-----2---2-------2---2---|
|-------------------------|-------------------------|
|-5-----------4-----------|-2-----------2-----------|
heart is locked up here so qui   -    etly

  Em7        D/B           A
|--------------------------|--------------------------|
|---3-------3----3-------3-|---2-------2--------------|
|-------0------------2-----|-------2------------------|
|-----2---2--------0---0---|-----2---2----------------|
|--------------2-----------|-0------------0----2----4-|
|-2------------------------|--------------------------|
believing that you hold the key.        Won't you please

  D           D/C#           D/B         D/A
|-------------------------|-------------------------|
|---3-------3---3-------3-|---3-------3---3-------3-|
|-------2-----------2-----|-------2-----------2-----|
|-0---0---0-------0---0---|-----0---0-------0---0---|
|-------------4-----------|-2-----------0-----------|
|-------------------------|-------------------------|
  waltz  me  free?     The turns of our steps are un-

  G                          G           G/F#
|---------------p----------|-------------------------|
|---3-------3--5\3-------3-|---3-------3---3-------3-|
|-------0------------0-----|-------0-----------0-----|
|-----0---0--------0---0---|-----0---0-------0---0---|
|--------------------------|-------------------------|
|-5------------5-----------|-5-----------4-----------|
tangling me,              free from some dragged around

  Em7                     A           Bbdim7
|-------------------0-----|-------------------------|
|---3-------3---3-------3-|---2-------2---2-------2-|
|-------0-----------------|-------2-----------0-----|
|-----2---2-------2---2---|-----2---2-------2---2---|
|-------------------------|-0-----------1-----------|
|-2-----------2-----------|-------------------------|
  mem   -   ory     and the rusty old remnants of

  Bm         Bm/A         G           G/F#          Em7  A
|-------------------------|-------------------------|-----------|
|---3-------3---3-------3-|---3-------3---3-------3-|----3------|
|-------4-----------4-----|-------0-----------0-----|--0--------|
|-----4---4-------4---4---|-----0---0-------0---0---|-----------|
|-2-----------0-----------|-------------------------|--------0--|
|-------------------------|-5-----------4-----------|-2---------|
 fear.   And after 10 years,        I'm melting the shackles with


  D             Em7        A7sus4(add13)  D
     p                                   h
|---2\0-------|-----------0-|-----------0/2---------------|
|-------3-----|-------3-----|-----3-----3|----------------|
|-----------0-|---0---0-----|---0---0----|----2--------2--|
|---------4---|-----4---4---|---------4--|-----------0----|
|-------------|-------------|-0----------|----------------|
|-0-----------|-2-----------|------------|--0-------------|
tears.

  D               Em7        A7sus4         D
     h p
|---0/2\0-------|-----------0-|----------h--|-------------|
|--------3------|-------3-----|-----3---2/3-|-------------|
|-------------0-|---0---0-----|---2---0-----|-------------|
|-----------4---|-----4---4---|-------------|---0---------|
|---------------|-------------|-0-----------|--0----------|
|-0-------------|-2-----------|-------------|-0-----------|
                                                       I'm as


  D                   D/F#                 G        A
|-------------------|-----------p--------|-------------------|
|---3----3---3----3-|--4----3--5\3-----3-|---3----3---2----2-|
|-----2--------2----|----2----------2----|-----0--------2----|
|----0-0------0-0---|---0-0--------0-0---|----0-0------2-2---|
|-------------------|--------------------|----------0--------|
|-0--------0--------|-4--------4---------|-5-----------------|
nervous as if its still high school.  You're happily married I

  Bm                       G
|--------------------------|-------------------------|
|---3-------3----3-------3-|---3-------3----3------3-|
|-------4------------4-----|-------0------------0----|
|-----4---4--------4---4---|-----0---0--------0---0--|
|-2------------2-----------|-------------------------|
|--------------------------|-5------------5----------|
 know.             But it's not just this dance that I'm




  D         Bm        Em7                  G           A
|---------------------|----------------------|------------------|
|--3------3--3------3-|--3------3---3------3-|--3-----3---------|
|-----2---------4-----|-----0----------0-----|-----0---------2--|
|---0---0-----4---4---|---2---2------2---2---|---0---0-----2----|
|-----------2---------|----------------------|-----------0------|
|-0-------------------|-2---------2----------|-5----------------|
asking you for.     I'm asking you ten years ago.             Dm

  D                   D/F#                 G        Bbdim7
|-------------------|-----------p--------|-------------------|
|---3----3---3----3-|--4----3--5\3-----3-|---3----3---2----2-|
|-----2--------2----|----2----------2----|-----0--------0----|
|----0-0------0-0---|---0-0--------0-0---|----0-0------2-2---|
|-------------------|--------------------|----------1--------|
|-0--------0--------|-4--------4---------|-5-----------------|
member I wrote in your yearbook? Could you please waste some time

  Bm                       G
|--------------------------|-------------------------|
|---3-------3----3-------3-|---3-------3----3------3-|
|-------4------------4-----|-------0------------0----|
|-----4---4--------4---4---|-----0---0--------0---0--|
|-2------------2-----------|-------------------------|
|--------------------------|-5------------5----------|
on me?              There's just a few things I must

  D           Bm          Em7
|-------------------------|--------------------------|
|---3-------3---3-------3-|---3-------3----3-------3-|
|-------2-----------4-----|-------0------------0-----|
|-----0---0-------4---4---|-----2---2--------2---2---|
|-------------2-----------|--------------------------|
|-0-----------------------|-2------------2-----------|
tell you,    but that's as brave as      I      could

  A                        D            D+2/C#
|-------------------------|-------2-----------0-----|
|---2-------2-------------|---3-------3---3-------3-|
|-------2-----------------|-------------------------|
|-----2---2---------------|-0---0---0-------0---0---|
|-0-----------0---2---4---|-------------4-----------|
|-------------------------|-------------------------|
  be.      Won't you please waltz with me?         I

  D/B         D/A           G
|-------------------------|-------3-----------3-----|
|---3-------3---3-------3-|---3-------3---3-------3-|
|-------2-----------2-----|-------------------------|
|-----0---0-------0---0---|-----0---0-------0---0---|
|-2-----------0-----------|-------------------------|
|-------------------------|-5-----------5-----------|
feel like I'm just like I used to be               my

  G           G/F#          Em7
|-------3-----------3-----|-------3-----------3-----|
|---3-------3---3-------3-|---3-------3---3-------3-|
|-------------------------|-------------------------|
|-----0---0-------0---0---|-----2---2-------2---2---|
|-------------------------|-------------------------|
|-5-----------4-----------|-2-----------2-----------|
heart is locked up here so qui   -    etly

  Em7        D/B
|-------3------------------|--------------------------|
|---3-------3----3-------3-|---2-------2--------------|
|--------------------2-----|-------2------------------|
|-----2---2--------0---0---|-----2---2----------------|
|--------------2-----------|-0------------0----2----4-|
|-2------------------------|--------------------------|
believing that you hold the key.        Won't you please

  D           D/C#           D/B         D/A
|-------2-----------0-----|-------------------------|
|---3-------3---3-------3-|---3-------3---3-------3-|
|-------------------------|-------2-----------2-----|
|-----0---0-------0---0---|-----0---0-------0---0---|
|-------------4-----------|-2-----------0-----------|
|-0-----------------------|-------------------------|
  waltz  me  free?     The turns of our steps are un-

  G                          G           G/F#
|-------3-------p----3-----|-------3-----------3-----|
|---3-------3--5\3-------3-|---3-------3---3-------3-|
|--------------------------|-------------------------|
|-----0---0--------0---0---|-----0---0-------0---0---|
|--------------------------|-------------------------|
|-5------------5-----------|-5-----------4-----------|
tangling me,              free from some dragged around

  Em7                     A           Bbdim7
|-------3-----------0-----|-------------------------|
|---3-------3---3-------3-|---2-------2---2-------2-|
|-------------------------|-------2-----------0-----|
|-----2---2-------2---2---|-----2---2-------2---2---|
|-------------------------|-0-----------1-----------|
|-2-----------2-----------|-------------------------|
  mem   -   ory     and the rusty old remnants of

  Bm         Bm/A         G           G/F#         Em7   A
|-------------------------|-------------------------|-----------|
|---3-------3---3-------3-|---3-------3---3-------3-|----3------|
|-------4-----------4-----|-------0-----------0-----|--0--------|
|-----4---4-------4---4---|-----0---0-------0---0---|-----------|
|-2-----------0-----------|-------------------------|--------0--|
|-------------------------|-5-----------4-----------|-2---------|
 fear.   And after 10 years,        I'm melting the shackles with


  D            Em7         A7sus4(add13)  D
     p                                   h
|---2\0-------|-----------0-|-----------0/2---------------|
|-------3-----|-------3-----|-----3-----3|----------------|
|-----------0-|---0---0-----|---0---0----|----2--------2--|
|---------4---|-----4---4---|---------4--|-----------0----|
|-------------|-------------|-0----------|----------------|
|-0-----------|-2-----------|------------|--0-------------|
tears.

  D              Em7         A7sus4         D
     h p
|---0/2\0-------|-----------0-|----------h--|-------------||
|--------3------|-------3-----|-----3---2/3-|-----3-------||
|-------------0-|---0---0-----|---2---0-----|----2--------||
|-----------4---|-----4---4---|-------------|---0---------||
|---------------|-------------|-0-----------|--0----------||
|-0-------------|-2-----------|-------------|-0-----------||     
Добавлено: 11.08.2013
Другие материалы по этой песне:
  • Аккорды и текст

Страница создана 02.04.2012
http://primanota.ru/david-wilcox/last-chance-waltz-chords.htm
Привет, Гость.
Предлагаем пройти революционный курс по гитаре.
Подарок от PrimaNota.Ru, забирай!