PrimaNota.ru - самый крупный в мире бесплатный архив песенных текстов, аккордов, табулатур и нот


David Wilcox - Catch me if i Try - аккорды и текст, таба, видео

Регистрация Запомнить меня
Войти через:  Facebook Google Twitter Vk Yandex Mail.ru

David Wilcox - Catch me if i Try - аккорды и текст, таба, видео

Печатать
Просмотров: 120
Catch me if i Try
David Wilcox
		   --------------------------------------------
  Song   : "Catch Me If I Try"
  Artist : David Wilcox
  Album  : East Asheville Hardware (1995)
--------------------------------------------

(Transcribed by Brian Scholl)
scholl@ruccs.rutgers.edu

Tuning : D A D G A D


INTRO (4 Bars, repeated twice)
|------------------|------------------|-------------0----|------------------|
|-------------0----|------------------|---------0-----0--|------------------|
|---------0-----0--|--------------0---|-----------0------|--------------0---|
|-----4-4---4------|------0---2/4---4-|-----4-4----------|------0---2/4---4-|
|---0--------------|---2---2-0--------|---0--------------|---2---2-0--------|
|-0-------5--------|-2----------------|-0-------5--------|-2----------------|


FIRST VERSE (10 Bars)
|------------------|------------------|------------------|-----------0---0--|
|------------------|------(0)---(0)---|------------------|-------------0----|
|-------------0----|----(0)-----------|-------------0----|------------------|
|-----4-----4--(4)-|---0--------------|-----4-----4--(4)-|----(0)--2--------|
|---5-----5--------|-0---------5------|---5-----5--------|---2---0-----0----|
|-5-----5----------|---------0----(0)-|-5-----5----------|-2----------------|
  "easy"                                "easy"


|------------------|--------------(0)-|------------------|---------|
|------------------|------(0)---(0)---|------------------|---------|
|-----0--------(0)-|----(0)-----------|-------0------(0)-|---------|
|-------4-----0----|---0--------------|-----2------(2)---|--(0)----|
|---5-------5------|-0---------5------|---2------(2)-----|-0-------|
|-5-------5--------|---------0--------|-2------(2)-------|---------|
  "Lay off"                             "I'm"


|------------------|------------------|
|-------------0----|----------------0-|
|-----0---0-----0--|--------------0---|
|---4---4---4------|------0---2/4-----|
|------------------|---2---2-0--------|
|-0-------5--------|-2----------------|
  "fly"


FIRST CHORUS (11 Bars)
|-------------0----|------------------|------------------|------------------|
|------------------|------------------|-----0-------0----|------------------|
|-----0---0--------|--------------0---|---------0-----0--|--------------0---|
|---4---4---4---4--|------0---2/4---4-|---4---4---4------|------0---2/4---4-|
|------------------|---2---2-0--------|------------------|---2---2-0--------|
|-0-------5--------|-2----------------|-0-------5--------|-2----------------|
  "touch"                               "make"


|------------------|------------------|---------------0--|
|-----0------(0)---|----------------0-|-------0---0h2----|
|---------0----(0)-|--------------0---|-----0------------|
|---4---4---4------|------0---2/4-----|---4--------------|
|------------------|---2---2-0--------|---------0--------|
|-0-------5--------|-2----------------|-0----------------|
  "make"                                "Catch"


|------------------|------------------|-------------0----|------------------|
|-----0-------0----|------------------|---------0-----0--|----------------0-|
|---------0-----0--|--------------0---|-----0-----0------|--------------0---|
|---4---4---4------|------0---2/4---4-|---4---4----------|------0---2/4-----|
|------------------|---2---2-0--------|------------------|---2---2-0--------|
|-0-------5--------|-2----------------|-0-------5--------|-2----------------|


SECOND VERSE (14 Bars)
|-----------0------|---0--------------|-----------0------|-----0------------|
|-----0------------|----(0)----0-2h0--|-----0------------|-------------0----|
|--------------(0)-|------------------|--------------(0)-|-----------0---0--|
|---0-----0---0----|--------(0)-------|---0-----0---0----|---0----(0)-------|
|-3-----3----------|-2-----2----------|-3-----3----------|-2-----0----------|
|------------------|------------------|------------------|------------------|
  "temptin'"                            "I thought"


|------------------|------------------|
|------------------|------------------|
|------------------|------------------|
|----(0)---(0)-(0)-|------0-3/2h0-0---|
|--(5)---(2)--0----|---0h2-0-----2-0--|
|-5-----2----------|------------------|
  "love..."


|-----------0------|----(0)-----------|------------------|-------0----------|
|-----0--------(0)-|----------(0)-----|------------------|---0-------0------|
|--------(0)-------|--------(0)----0--|-------0-------0--|---------------0--|
|-------0-----0----|-------0-----0----|-----4----(4)-----|-------------4----|
|--(0)-------------|--(0)-------------|---5----(5)--5----|-5---5---5--------|
|-0----------------|-4----------------|-5----------------|------------------|
  "read"                                "dance"


|------------------|-0----------------|------------------|------------------|
|---------------0--|-----0------------|-----0------------|---------------0--|
|---------0--------|-------0-------0--|-------0-------0--|------------------|
|-----2-4-----4----|---------4--------|---4-----4---4----|-2----------------|
|---2--------------|--(2)------2-2----|-0----------------|-0-----------0----|
|-2----------------|-2----------------|------------------|------------------|
      "I have"                           "but"


SECOND CHORUS: Repeat 1st 9 bars of First Chorus, then 2 more bars
|------------------|---------0--------|
|-------------0----|-------0----------|
|-----0---0-----0--|-----0---------0--|
|---4---4---4------|--(0)--------2----|
|------------------|-0----------------|
|-0-------5--------|------------------|
  "And when"


THIRD VERSE (9 Bars)
|------------------|----(0)-----------|------------------|------------------|
|-----0-------0----|------(0)---------|-------0-------0--|-------0-------0--|
|------------------|-------------0----|-----0-------0----|-----0-------0----|
|------------------|-----------4--(4)-|---0-------0------|---0-------2------|
|---5-------5---5--|---5-----0--------|------------------|---------0--------|
|-0-----0-4--------|-5----------------|-0-------4--------|-5----------------|
  "fallin'"                             "never"


|------------------|-----0------------|---------0--------|------------------|
|-----0-------0----|-------0----------|-----------0------|---0--------------|
|------------------|---0-------0---0--|------(0)---------|--------------(0)-|
|------------------|------------------|----(2)-----------|-----4-0-----0----|
|---5---5---5---5--|-2-----------2----|---2---------2\---|-0----------------|
|-0-------4--------|------------------|-2----------------|------------------|
  "Way up"                              "Let up"


|------------------|
|---0--------------|
|-----0------------|
|-------0----0-----|
|-0----------------|
|------------------|


THIRD CHORUS: Repeat first 9 bars of First Chorus


CODA (7 Bars)
|------------------|------------------|------------------|-------------0----|
|-----------0------|--------------0---|-----------0--(0)-|---------------0--|
|---------0--------|------------------|-----0---0--------|------------------|
|---4---4----------|------0---2/4---4-|---4---4-----0----|---0---0---4------|
|-----5-------5-5--|---2---2-0--------|------------------|-----2---0--------|
|-0----------------|-2----------------|-0----------------|------------------|
  "touch"                               "touch"

                                          ..........harmonics.... .....
|------------------|------------------|---7---7---7-----5-7-----------7----||
|----(0)---(0)-(0)-|------------(0)---|---7---7---7---5--------------7-----||
|--(0)---(0)-(0)---|----(0)---(0)-(0)-|---7---7---7---5-------------7------||
|------------------|--(0)---(0)-------|---7---7---7---5-----7------7-------||
|------------------|-3-----2----------|---------------------------7--------||
|-0-----4----------|------------------|-0------------------------0---------||
  "touch"                               "fly"



FIRST VERSE
Go easy on those eyes, I'm about to lose my grip
Go easy on that smile, I'm afraid that I might slip
Lay off on that calling and temptin' me to try
'Cause I'm so scared of fallin', I'll never learn to fly

CHORUS
Then you say 'Touch me. You can reach me.'
Now you can make me want to fly
You make it seem so easy
Catch me if I try

SECOND VERSE
You tempted me to step off the edge of reason
I thought that I knew better than to start believing in ...
Love, love, love ...
But if I read you right, you just might want to dance all night
Well I have risked a fall before, but not from this height

CHORUS

THIRD VERSE
And when I try it's only falling, just what could be the fear?
You'll never learn to fly unless you take that first step
Way up where your heart will be your only guide
Let up on your worryin', head up on your heart

CHORUS

CODA
Then you say 'Touch me. You can reach me.'
Then you say 'Touch me. You can reach me.'
Then you say 'Touch me. You can teach me ...
Teach me how to fly...'     
Добавлено: 14.07.2013
Другие материалы по этой песне:
  • Аккорды и текст

Страница создана 29.06.2012
http://primanota.ru/david-wilcox/catch-me-if-i-try-chords.htm
Привет, Гость.
Предлагаем пройти революционный курс по гитаре.
Подарок от PrimaNota.Ru, забирай!