PrimaNota.ru - самый крупный в мире бесплатный архив песенных текстов, аккордов, табулатур и нот


David Wilcox - Bad Repuatation - аккорды и текст, таба, видео

Регистрация Запомнить меня
Войти через:  Facebook Google Twitter Vk Yandex Mail.ru

David Wilcox - Bad Repuatation - аккорды и текст, таба, видео

Печатать
Просмотров: 118
Bad Repuatation
David Wilcox
		   From the Album "Bad Reputation" -David Wilcox


Intro:   D5 A5 G5  E5 blues shuffle             D5  A5  G5  E5
        ------------------------------------------------
        ------------------------------------------------
        ------------------------------------------------
        -7---------------------------------------7--------
        -5--7--5---2--2--4--2--2--2--4--2--2--2--5--7--5--0---
        ----5--3---0--0--0--0--0--0--0--0--0--0-----5--3--2--etc.

   Verse 1
         E5 blues shuffle
         I've got a bad reputation in this town
        ------------------------------------------------
        ------------------------------------------------
        -------------------------------------------------
        -------------------------------------------------
        -2--2--4--2--2--2--4--2--2--2--4--2-2-3-to F#5--
        -0 -0--0--0--0--0--0--0--0--0--0--0 0-1----------

         F#5 shuffle
        it's something I can't live down
        ------------------------------------------------
        ------------------------------------------------
        -----------------------------------------------
        -----------------------------------------------
        -4--4--6--4--4--4--6--4--4--4--6--4--4-----------
        -2--2--2--2--2--2--2--2--2--2--2--2--2------------

        B5                          E5
        I wish I could be what people want me to be
        ---------------------------------------------
        ---------------------------------------------
        ---------------------------------------------
        -4--4--6--4--4--4--6--4-----------------------
        -2--2--2--2--2--2--2--2------2--2--4--2--2--2--4--2-
        -----------------------------0--0--0--0--0--0--0--0-

        F#5                      B
        but somehow I can't come around
        --------------------------------------------
        -------------------------4--4--4--4--------------
        -------------------------4--4--4--4--------------
        -------------------------4--4--4--4--------------
        -4--4--6--4--4--4--6--4--2--2--2--2--------------
        -2--2--2--2--2--2--2--2-------------------------

  Break:
           A5       E5              G#5      C#5
         so you take your road   and I'll take mine
        ------------------------------------------
        ------------------------------------------
        ----2---------------------------------6-----
        ----2-------2---------------6---------6------
        ----0-------2---------------6---------4-------
        ------------0---------------4----------------


        I'll drink the whisky and you drink the wine
        ---------------------------------------------
        ---------------------------------------------
        --2----------------------------------6---------
        --2-----------2------------6---------6-----------
        --0-----------2------------6---------4-----------
        --------------0------------4--------------------

        A5 shuffle            B5            E5 to  B5
        that's the situation  I got a bad reputation
        ---------------------------------------------
        ----------------------------------------------
        ----------------------------------------------
        -----------------------------------------------
        --------------------------------------2--7-8-9
        --------------------------------------0--5-6-7


  Bridge: E5
        -----------------------------------------------
        -----------------------------------------------
        -9--12/13--15/16--16--16--15/16--16--16--15/16--16--18-
        -----------------------------------------------
        -7--10/11--13/14--14--16--13/14--14--14--13/14--14--16-
        -----------------------------------------------

        F#5
        ---------------------------------------------------
        ---------------------------------------------------
        --9--5/6--6/9--9--9--8/9--9--9--8/9--9--9--11>p9----
        -------------------------------------------------11-9-
        --7--3/4--4/7--7--7--6/7--7--7--6/7--7--7------------
        -----------------------------------------------------

        B5
        --------------------------------------------
        --------------------------------------------
        --------------------------------------------
        --------------------------7---------shuffle to B runup
        9--9--11--9--9--9--11--9--5--7--5--2--2----7-8-9-----
        7--7--7---7--7--7--7---7-----5--3--0--0----5-6-7-----

    That's the basic song-here are the rest of the words

   Verse 2:
        I've got a bad reputation in this town
        People try to put me down
        They call me a loser a no good boozer
        and tell me I act like a clown

  Break 2:
        Now if you don't like my face and style
        don't waste time tryin' to tell me how
        just show me and get your own bad reputation
  Bridge:

  Repeat 2nd break and fade out     
Добавлено: 29.09.2013
Другие материалы по этой песне:
  • Аккорды и текст

Страница создана 11.04.2012
http://primanota.ru/david-wilcox/bad-repuatation-chords.htm
Привет, Гость.
Предлагаем пройти революционный курс по гитаре.
Подарок от PrimaNota.Ru, забирай!