PrimaNota.ru - самый крупный в мире бесплатный архив песенных текстов, аккордов, табулатур и нот


David Tao - Moon Over My Heart - таба, видео

Регистрация Запомнить меня
Войти через:  Facebook Google Twitter Vk Yandex Mail.ru

David Tao - Moon Over My Heart - таба, видео

Печатать
Просмотров: 113
[Chorus 2x]

e|----0--4--7--------4--7----7--9--11--12--9---------------------|
B|-0-----------5--4---------------------------12-----------------|
G|---------------------------------------------------------------|
D|---------------------------------------------------------------|
A|---------------------------------------------------------------|
E|---------------------------------------------------------------|

e|---------------------------------------------------------------|
B|--7—-7h9--5--5--5--7—-7h9--5--5--5-----7--7/9--7--5--2--9--7---|
G|---------------------------------------------------------------|
D|---------------------------------------------------------------|
A|---------------------------------------------------------------|
E|---------------------------------------------------------------|

[Continue…]

e|---------------------------------------------------------------|
B|-9--12--9--7--5--12--4----2--4--5--2--2--0--9------------------|
G|---------------------------------------------------------------|
D|---------------------------------------------------------------|
A|---------------------------------------------------------------|
E|---------------------------------------------------------------|

e|---------------------------------------------------------------|
B|-12--9--7--5--12--4----2--4--5--5--5--7--9—-7------------------|
G|---------------------------------------------------------------|
D|---------------------------------------------------------------|
A|---------------------------------------------------------------|
E|---------------------------------------------------------------|

[Chorus 1x]

e|----0--4--7--------4--7----7--9--11--12--9---------------------|
B|-0-----------5--4---------------------------12-----------------|
G|---------------------------------------------------------------|
D|---------------------------------------------------------------|
A|---------------------------------------------------------------|
E|---------------------------------------------------------------|

e|---------------------------------------------------------------|
B|--7—-7h9--5--5--5--7—-7h9--5--5--5-----7--7/9--7--5--2--9--7---|
G|---------------------------------------------------------------|
D|---------------------------------------------------------------|
A|---------------------------------------------------------------|
E|---------------------------------------------------------------|
Добавлено: 04.07.2012
Другие материалы по этой песне:
  • Аккорды и текст

Страница создана 04.07.2012
http://primanota.ru/david-tao/moon-over-my-heart-chords.htm
Привет, Гость.
Предлагаем пройти революционный курс по гитаре.
Подарок от PrimaNota.Ru, забирай!