PrimaNota.ru - самый крупный в мире бесплатный архив песенных текстов, аккордов, табулатур и нот


David Sylvian - The Ink in the Well - аккорды и текст, видео

Регистрация Запомнить меня
Войти через:  Facebook Google Twitter Vk Yandex Mail.ru

David Sylvian - The Ink in the Well - аккорды и текст, видео

Печатать
Просмотров: 210
Уроки эстрадного вокала в Санкт-Петербурге
Авторы музыки: David Sylvian
Авторы текста: David Sylvian
The Ink in the Well
David Sylvian
Artist: David Sylvian 
Song: The ink in the well 
Tabbed by: DJ
14th May 2013

Tuning: Standard
Time signature: 6/8

**********************************************************************************************

    Baug              Em               Baug              Em
||: /__/__/ /__/__/ | /__/__/ /__/__/ | /__/__/ /__/__/ | /__/__/ /__/__/ :||(Twice)


Baug                     Em                    Baug       Em
      The lights of the ashes smoulder through hills and vales,
Baug             Em                          Baug      Em
      Nostalgia burns in the hearts of the strongest,
Baug                Em                      Baug             Em    Baug        Em
      Picasso is painting the ships in the harbour, the wind--- and----- sails,
Baug                  Em               Baug               Em
      These are years... with a genius------  for living!


Dm7             Em7                 Bm                 C7M         D
    The rope is cut, the rabbit is loose,
                                  (Fire at will in this open sea - son!)

               Em7                   Bm                    C7M              G6   F#7/11
The blood of a poet, the ink in the well!
                              (It's all written down in this age-- of rea - son!)


(Harmonics*)
e |------------------------------------|------------------------------------|
B |------------------------------------|------------------------------------|
G |--------------------12*-------------|--------------------12*-------------|
D |---12*------------------------------|---12*------------------------------|
A |------------------------------------|------------------------------------|
E |--------12*--12*---------12*--12*---|--------12*--12*---------12*--12*---| (Twice)
     /____/____/       /____/____/        /____/____/       /____/____/


    Baug              Em               Baug              Em
||: /__/__/ /__/__/ | /__/__/ /__/__/ | /__/__/ /__/__/ | /__/__/ /__/__/ :||(Twice)


Baug              Em                     Baug      Em
      The animals run through harvested fields of fire,
Baug                   Em                      Baug      Em
      The bitterness shown in the face of the homeless,
Baug                Em                         Baug             Em   Baug     Em
      Picasso is painting the flames from the houses, the sudden----     rain----,
Baug                  Em               Baug               Em
      These are years... with a genius------  for living!


Dm7             Em7                 Bm                 C7M         D
    The rope is cut, the rabbit is loose,
                                  (Fire at will in this open sea - son!)

               Em7                   Bm                    C7M              G6   F#7/11
The blood of a poet, the ink in the well!
                              (It's all written down in this age-- of rea - son!)


  (Harmonics*)
e |------------------------------------|------------------------------------|
B |------------------------------------|------------------------------------|
G |--------------------12*-------------|--------------------12*-------------|
D |---12*------------------------------|---12*------------------------------|
A |------------------------------------|------------------------------------|
E |--------12*--12*---------12*--12*---|--------12*--12*---------12*--12*---|  (Twice)
     /____/____/       /____/____/        /____/____/       /____/____/



    Baug              Em               Baug              Em
||: /__/__/ /__/__/ | /__/__/ /__/__/ | /__/__/ /__/__/ | /__/__/ /__/__/ :||(4 times)


        Baug  Em         Baug   Em         Baug                Em          Baug  Em
D' -d' -doo-----! D' -d' -doo-----! D' -d' -doo 'n' doo! Doo'n'doo! D' -d'-doo-----!

     Baug   Em  Baug   Em        Baug    Em   Baug  Em    Baug              Em
Fire---- at will-----!      Fire---- at will-----!      | /__/__/ /__/__/ | /__/__/ /__/__/ |


 Baug               Em                        Baug     Em   Baug   Em
| /__/__/ /__/__/ | /__/__/ /__/__/ |    Fire----  at will-------!


      Em
e |--------0---0----------------||
B |-------0-------4-------------||
G |------0-----------4----------||
D |-----2---------------5---4---||
A |----2------------------------||
E |---0-------------------------||


**********************************************************************************************

Baug  =  x2100x     Bm     =  x24432
Em    =  022000     C7M    =  x35500
Dm7   =  xx0211     D      =  xx0232
Em7   =  022030     G6     =  355400
                    F#7/11 =  244300
Добавлено: 15.08.2013
Другие материалы по этой песне:
  • Аккорды и текст

Страница создана 21.03.2012
http://primanota.ru/david-sylvian/the-ink-in-the-well-chords.htm
Привет, Гость.
Предлагаем пройти революционный курс по гитаре.
Подарок от PrimaNota.Ru, забирай!