PrimaNota.ru - самый крупный в мире бесплатный архив песенных текстов, аккордов, табулатур и нот


David Sylvian - Before the Bullfight - текст песни, таба, видео

Регистрация Запомнить меня
Войти через:  Facebook Google Twitter Vk Yandex Mail.ru

David Sylvian - Before the Bullfight - текст песни, таба, видео

Печатать
Просмотров: 147
Авторы музыки: David Sylvian
Авторы текста: David Sylvian
(/) Slide Up  (\) Slide Down  (h) Hammer On  (p) Pull Off  (b) Bend (r) Release (v) Vibrato

Stave 1:

E|--12-------14------------------------------------------------------------------9--10--12--9--------------
B|---------------14------12v--14--12--14--12v--14--12--------------------10--12----------------10-----12v--
G|------13v----------13--------------------------------------------6--9----------------------------9-------
D|--------------------------------------------------------------7------------------------------------------
A|-----------------------------------------------------------7---------------------------------------------
E|-----------------------------------------------------5--9------------------------------------------------

Stave 2:

E|--------------------------------------------------------------------------------------------------
B|--------------------------------------------10--9--7----------------------------------------------
G|--6/8v--4--6------------------------------------------9------------------------------0--2h4h5h----
D|--------------6v--4--6--------------------------------------------------------0--2h3h-------------
A|------------------------6v--4--6------------------------------------0--2h3h3----------------------
E|----------------------------------2v--4v-------------------0--1--3--------------------------------

Stave 3:

E|----------------------------------------------------7/9----------------------------------------7--
B|-----------7---------------------------------------------10------------------7-----10v--9--10-----
G|--6--8--9-----8--9--6--8-----6-------------4--6v-------------9------------------9-----------------
D|--------------------------9-----6----4--6-----------------------11--------------------------------
A|--------------------------------------------------------------------12----------------------------
E|------------------------------------------------------------------------12v-----------------------

Stave 4:

E|--9--10--12--14v------------------------------------------------------------------------------------
B|--------------------------------------------------------------------------2-------------------------
G|------------------6/8v----4--6-----4--------------------------------2--4-----4--2-------------------
D|--------------------------------6-----4--6-----4-----------------------------------4----------------
A|--------------------------------------------6-----4--6--2--4-------------------------------------0--
E|--------------------------------------------------------------4v------------------------0--1--3-----

Stave 5:

E|-------------------------------7--5--7--12-------------------------
B|-------------------------3v----7------------10--12-----------------
G|----------------0h2h4h5-----------------------------9--7--9--11v---
D|--------0--2h3-----------------------------------------------------
A|--2--3-------------------------------------------------------------
E|-------------------------------------------------------------------

                                                        http://www.guitartabcreator.com
Добавлено: 29.07.2015
Другие материалы по этой песне:
  • Аккорды и текст

Страница создана 15.05.2012
http://primanota.ru/david-sylvian/before-the-bullfight-chords.htm
Привет, Гость.
Предлагаем пройти революционный курс по гитаре.
Подарок от PrimaNota.Ru, забирай!