PrimaNota.ru - самый крупный в мире бесплатный архив песенных текстов, аккордов, табулатур и нот


David So - Untitled Song - таба, видео

Регистрация Запомнить меня
Войти через:  Facebook Google Twitter Vk Yandex Mail.ru

David So - Untitled Song - таба, видео

Печатать
Просмотров: 126
Capo 1.

Original version.

It's pretty simple, but just the timing with the singing may be abit weird on the first go.
Listen to the song and you'll get there at some point.

E|-----------------------------------------------|
B|--------3-----------3------------0-------------|
D|------0---0-------0---0--------0---0----2--2---|  This is essentially the tab for the
G|----0-------0---0-------0---0--------0---------|  entire verse and intro AND CHORUS.
A|--3-----------2-----------3--------------------|
E|----------------------------------------2--2---|  x whatever the amount he does lmao

Very slow arpeggios and walking down bassline I guess.
Mute right after the first 2/2 thing ^^^^^^ that thing.


E|------------------------|
B|------------------------|
G|------0--------0--------|
D|----0--------0----------|
A|------------------------|
E|--3--------2------1-----|
    Here     is     my ... reply


E|------0---------0-------|
B|--------0-------0-------|
G|----0-----0-----0-------|
D|---0------------0-------|
A|--3-------------3-------|
E|------------------------|
                 down strum


Go back to the first thing ^^^^^^^^^^^^^^^^^^^^^^^^.

Sometimes David picks the high E string on some parts, but it sounds fine without it,
it's a minor detail.

Uh, yeah. Woo.

Fingerstyle version:

It's kinda-harder ? But it's kinda similar so no problemo.
Unfinished.

Play the first tab up in the original version for the intro.

E|---------------------------------------------------------------|
A|--------------------3-----------0------------------------------|
D|--0-0-2-/4-4------0---0-------0----0h2p0-2-2-2-2h4-2-0-2--0----|
G|----------------0-------0---0----------------------------------|
B|--------------3-----------2--------------3---------------------|
E|-------------------------------------------------------2--2----|

E|---------------------------------------------------------------|
A|----------------0-0-0-0---------0-0-0----------------3---------|
D|------0-2-/4-4--0-------2-0-2-4-0-----2-0-2-2----2/4---4\2-----|
G|---------------------------------------------------------------|
B|----------------3-------2-------3-----3-----3------------------|
E|---------------------------------------------------------------|

x2

E|---------------------------------------------------------
B|-----------------0-------0-------------------------------
G|-2/4-4/2-0-2---0---2---0---2-2-2--2-4/2-0-2---------------------
D|-------------0-------0---------------------------------
A|-----------3-------2-------3-----------------------------
E|------------------------------------------2--------------

ceebs update later
Добавлено: 07.05.2015
Другие материалы по этой песне:
  • Аккорды и текст

Страница создана 07.05.2015
http://primanota.ru/david-so/untitled-song-chords.htm
Привет, Гость.
Предлагаем пройти революционный курс по гитаре.
Подарок от PrimaNota.Ru, забирай!