PrimaNota.ru - самый крупный в мире бесплатный архив песенных текстов, аккордов, табулатур и нот


David Ramirez - The Forgiven - таба, видео

Регистрация Запомнить меня
Войти через:  Facebook Google Twitter Vk Yandex Mail.ru

David Ramirez - The Forgiven - таба, видео

Печатать
Просмотров: 140
Уроки эстрадного вокала в Санкт-Петербурге
-------------------------------------------------------------------------------
                   David Ramirez - The Forgiven (Lacey Sturm version)
-------------------------------------------------------------------------------
Tabbed by: Eden Langeveldt
E-mail:    edenlyrics@gmail.com

Tuning:Standard

The Chords used in the second verse of this song are kinda suspended, I don't know what they are called 
exactly
but here is their notes:

A7:  x3x030
Esus11: 004430
A5sus:  555755
Fsus:   033010
Gm :    333533
Or u can use the tab for the second verse it's up to you :)
 

INTRO:

e|-----------------------------0------------------------------|
B|----------3----------------3---3-----3--------------------1-|
G|-----0---------------0--------------4--------7-------0------| x2
D|---------------------------------0h4-------5------------3---|
A|--3-----3---------3-----3-------------------------3---------|
E|----------------------------------------0h5-----------------|

VERSE1:


e|-----------------------------0------------------------------|
B|----------3----------------3---3-----3--------------------1-|
G|-----0---------------0--------------4--------7-------0------| play once for every line
D|---------------------------------0h4-------5------------3---|
A|--3-----3---------3-----3-------------------------3---------|
E|----------------------------------------0h5-----------------|

They Love me for being honest, they love me for being myself
But the minute I mention Jesus, they want me to go to hell
And its hard to find the balance, when I don't believe in one
When you mix art with business, you're just shooting an empty gun

Am                         F           C
You're just a songwriter, you ain't a preacher
G                      A5sus
we came to mourn you, not look in the mirror
Am                           F          C
Sing about those hard times, Sing about those women
G                    A5sus     A7
We love the broken, not the forgiven


Instrumental : A7-A7-Esus11-A5sus-Fsus-A7

A7                            Esus11         A5sus       Fsus
These songs will only take me, as far as the people will go
A7                            Esus11         A5sus       Fsus
If I can't make them happy, well they won't come to my shows
A7                            Esus11         A5sus       Fsus
Maybe thats what killed, all the great voices of the world
A7                            Esus11         A5sus      (hammer on this chord)
Always bleeding over every line, but no one was bleeding in return


Am                         F           C
You're just a songwriter, you ain't a preacher
G                      A5sus
we came to mourn you, not look in the mirror
Am                           F          C
Sing about those hard times, Sing about those women
G                    A5sus         Gm ----    
We love the broken, not the forgiven

Turn around: 

F---  C---   G----

      Hey yeah

Am                         F           C
You're just a songwriter, you ain't a preacher
G                      A5sus
we came to mourn you, not look in the mirror
Am                           F          C
Sing about those hard times, Sing about those women
G                    A5sus         ---- Dsus  
We love the broken, not the forgiven




************************************

| /   slide up
| \   slide down
| h   hammer-on
| p   pull-off
| ~   vibrato
| +   harmonic
| x   Mute note
| b   Bend
| pb  Pre-bend
| br  Bend release
| pbr Pre-bend release
| brb Bend release bend

************************************
Добавлено: 09.08.2015
Другие материалы по этой песне:
  • Аккорды и текст

Страница создана 09.08.2015
http://primanota.ru/david-ramirez/forgiven-chords.htm
Привет, Гость.
Предлагаем пройти революционный курс по гитаре.
Подарок от PrimaNota.Ru, забирай!