PrimaNota.ru - самый крупный в мире бесплатный архив песенных текстов, аккордов, табулатур и нот


David Nollmeyer - Atma No Viii - таба

Регистрация Запомнить меня
Войти через:  Facebook Google Twitter Vk Yandex Mail.ru

David Nollmeyer - Atma No Viii - таба

Печатать
Просмотров: 113
Gtr I (E A D G B E) - 'Acoustic Guitar (steel)'

  Q=62
 3/4
  Gtr I
  S S S S E S S E E   E  S S  S S S  S  E S S
|-----2-5-3---------|----------------7--------|
|---3---------2-3---|-------------7-----------|
|-4---------4-----4-|-7---------7------12-7-6-|
|-------------------|----9----9---------------|
|-------------------|------9-10---------------|
|-------------------|-7-10--------7-10-12-7---|


  S S S  S  E S S E E   Q  S S S S E  S S
|-----------------2---|---------------------|
|-3-5-7--8-10---------|----------5----------|
|-------------6-7---6-|-7------4---7--------|
|---------------------|------5--------8-9---|
|---------------------|----7----------------|
|-3---7-10-12-6---2-6-|-7----------7-10-----|


   S  S S S E E E E   S S S S E  S S E E
|-----------------2-|--------------------|
|-------------------|-5-------2----------|
|---------------7---|---6-4-3---11-9---6-|
|-11----------------|-----0---2------8---|
|-------------------|--------------------|
|-12-10-9-7-6-3-7-2-|-5---------10---9-6-|


  S S S S E S S E E   S S  S S E  E E  E
|-------------------|---2----9-7----------|
|-------------------|-3---10------7-------|
|-7---------0-------|---------------9-----|
|-4-2-0-------4-----|-4---------------12--|
|-------4-2-----2---|--------0---------9--|
|-----------------3-|------9---0-10-9-----|


   S S S S E S S E E   S S S S S S S S E E   S S S S S S S S E E
|--------5-3---------|-------5-3-----------|---------------------|
|------7-------2-5---|-3-5-7-----5-7-----7-|---------------------|
|----7-------4-----4-|---------------7-----|-----------------4---|
|--9---------0-------|-----------------9---|---------------0---5-|
|--------------------|---------------------|-5-3-2---0-3-2-------|
|-10---7---------3---|-3-------------------|-------3-------------|


  S S S S S S S S E E   S S S S S S S  S E E
|---------------------|----------------------|
|-5-3-----4---------5-|---------2-5----7-----|
|-----5-4---4-5---4---|-7-5-4-------7----9-7-|
|-------0-----0-7-----|-4-2-0-7-----4--------|
|-----3---------------|-------3------------9-|
|-0-------7-------0-7-|---------0-----10-7---|


   E  S S  E  E  E  E    E  E  E  S S E E
|---------------------|---------------5----|
|----------9----------|-------------9------|
|-12----9----16-14----|----------11-----9--|
|----11------------11-|-12----14--0--------|
|----12------------12-|-14-14-----------7--|
|-12----9-12-16-12----|----16-12------5----|


  S S  S  S  E  S S  E  S  S    E  S  S  E  E  E  E
|-----------------7----------|----------------------|
|------7-10-----9---10-------|----------------------|
|-7----------9----------9----|----------------13----|
|-------------------------11-|-14-12-------14--0----|
|-9-7-------11---------------|-11----14-16-------14-|
|-----10--9----12----9-12----|----------17----------|


  E E  E  E  E E    E E  S S  S S E E
|----------------|--------------------|
|----------------|------10-8----------|
|-8-9-11---------|----9------11-9-7-9-|
|--------14-11-9-|-11-------------9-6-|
|--------11-12---|--------------------|
|-7-9-11---------|-12----9---11-------|


   E  S  S  S  S  S S E E   S S S S E S S E E   E S S E S S E S S   Q  Q  Q
|-----------------------4-|-----2-5-3---------|---------3---------|----------|
|---------------------5---|---3---------2-3---|---3---5---3---5---|-------5--|
|-11----------------------|-4---------4-----4-|-----4-------6---4-|-7--6-----|
|----14-13-14-12-11-7-----|-------------------|-5-----------------|----------|
|----11-----0-------------|-------------------|-------------------|----------|
|-11--------------9---0---|-------------------|-3-----0-----6-----|-7-----3--|


  E E Q  Q
|-------------*|
|---2-3--3----*|
|-2-----------*|
|-4---4--4----*|
|-----2--2----*|
|-------------*|


Duration Legend
---------------
W - whole; H - half; Q - quarter; E - 8th; S - 16th; T - 32nd; X - 64th; a - acciaccatura
+ - note tied to previous; . - note dotted; .. - note double dotted
Uncapitalized letters represent notes that are staccato (1/2 duration)
Irregular groupings are notated above the duration line
Duration letters will always appear directly above the note/fret number it represents the
duration for.  Duration letters with no fret number below them represent rests.  Multi-
bar rests are notated in the form Wxn, where n is the number of bars to rest for.  Low
melody durations appear below the staff

Tablature Legend
----------------
 h   - hammer-on
 p   - pull-off
 b   - bend
 pb  - pre-bend
 r   - bend release (if no number after the r, then release immediately)
 /\  - slide into or out of (from/to "nowhere")
 s   - legato slide
 S   - shift slide
  - natural harmonic
[n]  - artificial harmonic
n(n) - tapped harmonic
 ~   - vibrato
 tr  - trill
 T   - tap
 TP  - trem. picking
 PM  - palm muting
\n/  - tremolo bar dip; n = amount to dip
 \n  - tremolo bar down
 n/  - tremolo bar up
/n\  - tremolo bar inverted dip
 =   - hold bend; also acts as connecting device for hammers/pulls
 <>  - volume swell (louder/softer)
 x   - on rhythm slash represents muted slash
 o   - on rhythm slash represents single note slash

Misc Legend
-----------
 |  - bar
||  - double bar
||o - repeat start
o|| - repeat end
*|  - double bar (ending)
 :  - bar (freetime)
 $  - Segno
 &  - Coda
Tempo markers -  = BPM(8/16=s8/s16), where s8 = swing 8ths, s16 = swing 16ths


Добавлено: 06.06.2012
Другие материалы по этой песне:

Страница создана 05.03.2012
http://primanota.ru/david-nollmeyer/atma-no-viii-chords.htm
Привет, Гость.
Предлагаем пройти революционный курс по гитаре.
Подарок от PrimaNota.Ru, забирай!