PrimaNota.ru - самый крупный в мире бесплатный архив песенных текстов, аккордов, табулатур и нот


David Mead - Reminded #1 - текст песни, бас-таба, видео

Регистрация Запомнить меня
Войти через:  Facebook Google Twitter Vk Yandex Mail.ru

David Mead - Reminded #1 - текст песни, бас-таба, видео

Печатать
Просмотров: 43
Уроки эстрадного вокала в Санкт-Петербурге
-------------------------------------------------------------------------------
                          REMINDED #1 - David Mead
-------------------------------------------------------------------------------
Tabbed by: DDDiego
E-mail: 

Tuning:

G|---------------------------------------------------------------------------|
D|-------------------------------------------------1-------------------------|
A|---------------------------------------------------------------------------|
E|--3--------2-------------1-----------0-------------------------------------|
    I wasn't breaking your heart, just closing the bar

G|---------------------------------------------------------------------------|
D|----------------------------------------------------1----------------------|
A|---------------------------------------------------------------------------|
E|------3--------2-------------1---------0-----------------------------------|
    and I wasn't trying to be cool, just bending some rules

G|---------------------------------------------------------------------------|
D|---------------------------------------------------------------------------|
A|--------------------------------------------------5---------3--------------|
E|----3--------------5----------6--------------------------------------------|
    I know it sounds hard to believe, but I guess I needed to be

G|---------------------------------------------------------------------------|
D|---------------------------------------------------------------------------|
A|--------------------------5---------6------------5---------3---------------|
E|------1-------6------------------------------------------------------------|
    reminded of how bad it might have been, yes, I needed to be

G|---------------------------------------------------------------------------|
D|---------------------------------------------------------------------------|
A|-------------------------5-------6-----------5----------3------------------|
E|----1-------6------------------------------------------------------------1-|
  reminded of working on a bitter end, there's nothing to fear, whatever I do

G|---------------------------------------------------------------------------|
D|---------------------------------------------------------------------------|
A|--------------------------------------------------3------------------------|
E|-------------2----------------3-------------------------1---------4-5-6-7--|
    you know I always remember you, but I needed to be reminded of me

G|---------------------------------------------------------------------------|
D|---------------------------------------------------------------------------|
A|---------------------------------------------------------------------------|
E|-------8--------------------------5-----------------------8--4-------------|
    so I ordered up a new round of jokes and blew a curtain of smoke

G|---------------------------------------------------------------------------|
D|---------------------------------------------------------------------------|
A|---------------------------------------------------------------------------|
E|----8--------------------------5-------------------8-----4-----------------|
    swung from the fixtures of fame and put a face to the name

G|---------------------------------------------------------------------------|
D|---------------------------------------------------------------------------|
A|--------------------------------------------------5---------3--------------|
E|-------3------------5-------------6----------------------------------------|
  then I opened up an old wound to bleed, but I was happy to be

G|---------------------------------------------------------------------------|
D|---------------------------------------------------------------------------|
A|--------------------------5---------6------------5---------3---------------|
E|------1-------6------------------------------------------------------------|
    reminded of how bad it might have been, yes, I needed to be

G|---------------------------------------------------------------------------|
D|---------------------------------------------------------------------------|
A|-------------------------5-------6-----------5----------3------------------|
E|----1-------6------------------------------------------------------------1-|
  reminded of working on a bitter end, there's nothing to fear, whatever I do

G|---------------------------------------------------------------------------|
D|---------------------------------------------------------------------------|
A|--------------------------------------------------3------------------------|
E|-------------2----------------3--------------------------1--------4-5-6----|
    you know I always remember you, but I needed to be reminded of me

G|---------------------------------------------------------------------------|
D|---------------------------------------------------------------------------|
A|---------------------------------------------------------------------------|
E|---------7----------8-----1--------4-5-6-----------------------------------|
   yeah, I needed to be reminded of me


| /  slide up
| \  slide down
| h  hammer-on
| p  pull-off
| ~  vibrato
| +  harmonic
| x  Mute note
===============================================================================
Добавлено: 15.06.2016
Другие материалы по этой песне:
  • Аккорды и текст

Страница создана 12.09.2013
http://primanota.ru/david-mead/reminded-1-chords.htm
Привет, Гость.
Предлагаем пройти революционный курс по гитаре.
Подарок от PrimaNota.Ru, забирай!