PrimaNota.ru - самый крупный в мире бесплатный архив песенных текстов, аккордов, табулатур и нот


David Lee Roth - Its Showtime - текст песни, таба, видео

Регистрация Запомнить меня
Войти через:  Facebook Google Twitter Vk Yandex Mail.ru

David Lee Roth - Its Showtime - текст песни, таба, видео

Печатать
Просмотров: 509
Уроки эстрадного вокала в Санкт-Петербурге
t. See http://www.olga.net/faq/ for more information.                     #

From: "Vlad Moldovan" 
Subject: r/roth_david_lee/its_showtime.tab
Date: Sun, 14 Feb 1999 06:22:41 PST

'It's Showtime!'
(David Lee Roth/Jason Becker)

Album: David Lee Roth "A Little Aint Enough"
Transcribed by Vlad M. 

Here's my transcription for this cool song's intro. Jason rules!
Sorry, I don't have any time to transcribe the rest.
Basicly, this cool riff is used to the chorus too, only with some little changes to the main riff.
I hope this gave you a little help on how to start playing Dave's song.
And remember, corrections are wellcome, to my email address, above.


--------------------------5----------------------------------
--------------------------5----------------------------------
---------2p0-------------------------2-0---0-----------------
-------------0---------------------------4---2h4h5-0--2h4----
0--0h3h4--------0--------------0-3h4-------------------------
--------------------5-7-7------------------------------------

Hoooooooo-ooooo...
-------------------------5-----------------------------
-------------------------5-----------------------------
--------2p0-------------------------2-0---0------------
------------0---------------------------4---2h4h5-0~---
0-0h3h4--------0--------------0-3h4--------------------
-------------------5-7-7-------------------------------


Waaaahhhhh...
--------------------------5----------------------------------
--------------------------5----------------------------------
---------2p0-------------------------2-0---0-----------------
-------------0---------------------------4---2h4h5-0--2h4----
0--0h3h4--------0--------------0-3h4----------------------0~-
--------------------5-7-7------------------------------------



-------------------------5-------------------------------
-------------------------5-------------------------------
--------2p0-------------------------2-0---0--------------
------------0---------------------------4---5p4p2-2-4----
0-0h3h4--------0--------------0-3h4----------------------
-------------------5-7-7---------------------------------


--------------------------5----------------------------------
--------------------------5----------------------------------
---------2p0-------------------------2-0---0-----------------
-------------0---------------------------4---2h4h5-0--2h4----
0--0h3h4--------0--------------0-3h4-------------------------
--------------------5-7-7------------------------------------


Whaaaaa-ha...
-------------------------5------------------------------0~---
-------------------------5--------------------------3-3-0~---
--------2p0-------------------------2-0---0---------2-0-1~---
------------0---------------------------4---2h4h5---0--------
0-0h3h4--------0--------------0-3h4--------------------------
-------------------5-7-7-------------------------------------

verse...
Добавлено: 19.03.2012
Другие материалы по этой песне:

Страница создана 17.03.2012
http://primanota.ru/david-lee-roth/its-showtime-chords.htm
Привет, Гость.
Предлагаем пройти революционный курс по гитаре.
Подарок от PrimaNota.Ru, забирай!