PrimaNota.ru - самый крупный в мире бесплатный архив песенных текстов, аккордов, табулатур и нот


David Kitt - Song From Hope St - таба, видео

Регистрация Запомнить меня
Войти через:  Facebook Google Twitter Vk Yandex Mail.ru

David Kitt - Song From Hope St - таба, видео

Печатать
Просмотров: 149
Author/Artist/Album: David Kitt - The Big Romance (2001)
Title: Song From Hope St. (Brooklyn N.Y.)
Transcribed by: Tristan Wylie
Tuning: Standard EADGBE
Guitar: Acoustic w/Capo @ 3rd Fret
Chords: Played as open standard - so Capo up for right key

Intro:
E----------------------------
B----------------------------
G-----------0-------0---0----	[x4]
D------5-5-----5-5-----5-----
A----------------------------
E----------------------------

Verse: G	       (C)  G
	Same old lines hope on my street
	G		     Em
	People pace just like a broken beam
	              C	 G
	just like a broken beam
	G	       (C)  G
	7 steps take me to your door
	G	Em   (C)     Em
	7 steps each one a broken beam
	D	G
	each one a broken beam


Chorus:		    Em		     D          C     G
	And there's one more hour in my day and that's alright      [x2]


Verse: G	       (C)  G
	We step in I see another door
	G		 	    Em
	This old room feels like an overcoat
	              C	 G
	feels like an overcoat
	G	       (C)  G
	Window down to the people on my street
	G	Em   (C)     Em
	see their smiles somewhere an overcoat
	D	G
	somewhere an overcoat

Chorus:		    Em		     D          C     G
	And there's one more hour in my day and that's alright      [x2]

Solo-ey bit
    [hammer]
E----------------------------
B----------------------------
G---------0-0-------0-0------	[x8]
D---02-02-----02-02----------
A----------------------------
E----------------------------


One more hour	One more hour

E-------------------||----------------
B-------------------||----------------
G-----24-4---2-4-4--||--7---7-----7--7	[repeat numerous times]
D---02-----2--------||0---0-----0---0-
A-------------------||----------------
E-------------------||----------------
	[x4]

Dada da    dada daaaa da         [etc.]




The G during the verse is dead simple - kind of arpegiated G - two fingers 
hold e & E strings at 3rd fret as usual and the other two fingers run up and 
a few notes in the G major scale (I think I am correct with that description 
:-D )

Chord Guide:

EADGBE   EADGBE   EADGBE   EADGBE
3x0033   022000   x00232   032010

  G       Em        D        C

     
Добавлено: 26.06.2013
Вам также может быть интересно:
Другие материалы по этой песне:
  • Аккорды и текст

Страница создана 26.06.2013
http://primanota.ru/david-kitt/song-from-hope-st-chords.htm
Привет, Гость.
Предлагаем пройти революционный курс по гитаре.
Подарок от PrimaNota.Ru, забирай!