PrimaNota.ru - самый крупный в мире бесплатный архив песенных текстов, аккордов, табулатур и нот


David Housden - Thomas Was Alone - Hope - таба, видео

Регистрация Запомнить меня
Войти через:  Facebook Google Twitter Vk Yandex Mail.ru

David Housden - Thomas Was Alone - Hope - таба, видео

Печатать
Просмотров: 68
Standard Tuning


|--------------------3-----------3-----------0-----------0-|
|--8-------------------------------------------------------|
|----4-5-0-------5-4---------5-4---------5-4---------5-4---|
|------------5-----------5-----------5-----------5---------|
|----------3---3-------3---3-------3---3-------3---3-------|
|----------------------------------------------------------|

|------------3-----------3-----------0-----------0-|
|--------------------------------------------------|
|--------5-4---------5-4---------5-4---------5-4---|
|----5-----------5-----------5-----------5---------|
|--3---3-------3---3-------3---3-------3---3-------|
|--------------------------------------------------|

|------------3-------------------3-------------------0-------------------0---------|
|----------------------------------------------------------------------------------|
|--------5-4-------5-4-------5-4-------5-4-------5-4-------5-4-------5-4-------5-4-|
|----5---------5---------5---------5---------5---------5---------5---------5-------|
|--3---3---------3-----3---3---------3-----3---3---------3-----3---3---------3-----|
|----------------------------------------------------------------------------------|

|----------|
|----------|
|------5-4-|
|--5-------|
|----3-----|
|----------|

|--------------------------------------------------------------------------------------------|
|--------------------------------------------------------------------------------------------|
|--7/9--7/9--9\7--9\7-----7/9--7/9--9\7--9\7----7/9--7/9--9\7--9\7----7/9--7/9--9\7--9-7-----|
|---------------------10---------------------7---------------------7---------------------10--|
|--------------------------------------------------------------------------------------------|
|--------------------------------------------------------------------------------------------|

|---------------|
|---------------|
|--5-4---4-5----|
|------5--------|   x3
|---------------|
|---------------|

|---------------|
|---------------|
|--------5-4----|
|----5----------|   x5
|--3---3--------|
|---------------|

|----------------------------------------------|
|----------------------------------------------|
|--7/9--7/9--9\7--9\7----7/9--7/9--9\7--9\7----|
|---------------------7---------------------10-|
|----------------------------------------------|
|----------------------------------------------|

|--------------------------------------------------------------------------------------------|
|--------------------------------------------------------------------------------------------|
|--7/9--7/9--9\7--9\7-----7/9--7/9--9\7--9\7----7/9--7/9--9\7--9\7----7/9--7/9--9\7--9-7-----|
|---------------------10---------------------7---------------------7---------------------10--|
|--------------------------------------------------------------------------------------------|
|--------------------------------------------------------------------------------------------|

|------------|
|------------|
|--5-4---4-5-|
|------5-----|   x(Play until song ends)
|------------|
|------------|
Добавлено: 04.06.2016
Другие материалы по этой песне:
  • Аккорды и текст

Страница создана 04.06.2016
http://primanota.ru/david-housden/thomas-was-alone-hope-chords.htm
Привет, Гость.
Предлагаем пройти революционный курс по гитаре.
Подарок от PrimaNota.Ru, забирай!