PrimaNota.ru - самый крупный в мире бесплатный архив песенных текстов, аккордов, табулатур и нот


David Gilmour - Take A Breath - текст песни, таба, видео

Регистрация Запомнить меня
Войти через:  Facebook Google Twitter Vk Yandex Mail.ru

David Gilmour - Take A Breath - текст песни, таба, видео

Печатать
Просмотров: 285
Авторы музыки: David Gilmour
Авторы текста: Polly Samson
-------------------------------------------------------------------------------
                             David Gilmour - Take A Breath
-------------------------------------------------------------------------------
Tabbed by: James Ward
Email: alanshearerbetty@hotmail.com

Tuning: Standard

e|-0-----0-------------| These are the chords he uses in the Intro/Verse.
B|-0-----3-------------|
G|-1-----3-------------| Listen to songs for timings/muting e.t.c
D|-2-----2-------------|
A|-2-----2-------------|
E|-0-----0-------------|

e|----------------------|
B|-3--3-----------------| These are the two chords he plays in the
G|-2--2-----------------| next bit, with the "Take A Breath's" in.
D|-2--1-----------------|
A|----------------------|
E|----------------------|

Mainly, this is all the chords you need. Due to the strings and everything in the background.

Solo
-------------------------------------------------------------------------------
This is my rough estimate of the notes he hits in the great solo.

e|-------------------------------------------------------------------------------------------|
B|-----17b---19p17\--------------------------------------------------------------------------|
G|-----------------------------14-15~-13------------------13---------------------------------|
D|----------------------14/17--------------12-12~-12-12----12--12-12/15-15-15\12/14---12/14--|
A|-------------------------------------------------------------------------------------------|
E|12\----------------------------------------------------------------------------------------|

e|-----------------------------------------------------------------------------------|
B|----------------------------------------------------------17-17--17-----17---------|
G|-----------15-15-17-18b-18-18-15-15-15/19-19-19-------------19---------------------|
D|-/15-/17---------------------------------------------------------------------------|
A|-----------------------------------------------------------------------------------|
E|-----------------------------------------------------------------------------------|

e|---------19b---------19-19b19---------20-19-18---------------------------------------|
B|-17-17-------17-17-------------17-17-------------18-17-18--15h17p15?-----------------|
G|--------------------------------------------------------------------------------17?--|
D|-------------------------------------------------------------------------------------|
A|-------------------------------------------------------------------------------------|
E|-------------------------------------------------------------------------------------|
 not sure about the little quick part.

e|-----------------------------------------------------------------------------|
B|-----------------------------------------------------------------------------|
G|-12-13-13-13-----------------------------------7-9-7-------------------------|
D|----------------12-12-12-12/14-14-12-14-/9---------9-8-8p7p6 8---------------|
A|-----------------------------------------------------------------------------|
E|-----------------------------------------------------------------------------|

then something like...

e|-------------------------------------------------------------------------------------|
B|-------------------------------------------------------------------------------------|
G|-----------------------------------------7-7-7-4-4-7-7-7-----------------------------|
D|-/8--/10--/12--/15--/14----------------------------------3-3-1-3---------------------| a
A|------------------------------7\5/7---------------------------------------| E--------|       e
E|---------------------------------------------------------------------------| 013320--|
what i do for this bit at about 5:16 is strike
5:20

e|-----10------10/11 12b-14b-14b-12-14b-14b-12-12-14b-12-12--14b-12-14-12-12-12-15-12--|
B|-10-----10---------------------------------------------------------------------------|
G|-------------------------------------------------------------------------------------|
D|-------------------------------------------------------------------------------------|
A|-------------------------------------------------------------------------------------|
E|-------------------------------------------------------------------------------------|

Corrections would be nice! I tried my best! =P
And i know it's tricky to read, paste it into Notepad on "Word Wrap," and it should be fine *nods*

| /  slide up
| \  slide down
| h  hammer-on
| p  pull-off
| ~  vibrato
| +  harmonic
| x  Mute note
============================================================================
Добавлено: 22.05.2012
Другие материалы по этой песне:
  • Аккорды и текст

Страница создана 20.03.2012
http://primanota.ru/david-gilmour/take-a-breath-chords.htm
Привет, Гость.
Предлагаем пройти революционный курс по гитаре.
Подарок от PrimaNota.Ru, забирай!