PrimaNota.ru - самый крупный в мире бесплатный архив песенных текстов, аккордов, табулатур и нот


David Gilmour - Lets Get Metaphysical - таба, видео

Регистрация Запомнить меня
Войти через:  Facebook Google Twitter Vk Yandex Mail.ru

David Gilmour - Lets Get Metaphysical - таба, видео

Печатать
Просмотров: 182
|---------------------------------------------------------------------------|
|---------------------------------------------------------------------------|
|-----3b5------------3b5r4b5-r----b5-r3----1h3-b5--3--1---------------------|
|--3--------------3--------------------------------------3--1---------------|
|---------------------------------------------------------------------------|
|---------------------------------------------------------------------------|

     1:00
|---------------------------------------------------------------------------|
|--9b11--9--7--6--9---------------------------------------------------------|
|-----------------------6--8--8b10--8--6--5--b8-----6--5--3--6--------------|
|---------------------------------------------------------------------------|
|---------------------------------------------------------------------------|
|---------------------------------------------------------------------------|
 
     1:12
|--0s11--9--8---------------------------------9-----8-----------------------|
|--------------11--9-----------------------------------9--9-----------------|
|------------------------3s5-----0h3--5vvvvv--------------------------------|
|---------------------------------------------------------------------------|
|---------------------------^-4s^-------------------------------------------|
|---------------------------------------------------------------------------|

                                  1:39
|-------------------------------s13-----11----------s11-----s18--16---------|
|-----9--11-----8---------------------------14--13--------------------------|
|--8---------------8--8-----------------------------------------------------|
|---------------------------------------------------------------------------|
|---------------------------------------------------------------------------|
|---------------------------------------------------------------------------|

|--16--18--20--16s18--16--15------16---15h16p15h16p15--13------11-----s3----|
|-----------------------------18---------------------------12---------------|
|----------------------------------------------------------------^ 5s^------|
|--------------------------------------^there may be^-----------------------|
|---------------------------------------a few more of-----------------------|
|-------------------------------------------these!--------------------------|

     G (1:59)           A (2:10)  2:13                                A# (2:19)
|--3------------------5---------------------------------------------6-------|
|--3------------------5---------------------------8-----------------6-------|
|--4-(hold for 6s-----6------------5--7b9r7b9--------(9)r7----------7-------|
|--5--then add -------7---------3---------------------------7-------8-------|
|--5----tremolo)------7---------------------------------------------8-------|
|--3------------------5---------------------------------------------6-------|

     C (2:26)           D (2:29)  2:31
|--8------------------9------------------10------8s10--10--8----------------|
|--8------------------9---------s10--10------10---------------10p8h10-------|
|--9------------------10----------------------------------------------------|
|--10-------11----------------------------------------------------|
|--10-----------------11------------------------------------------|
|--8------------------9-----------------------------------------------------|

     F (2:39) 2:43                         G# (2:46)    A (2:49)
|--1-------------------------------------4------------5---------------------|
|--1-----------------------6--6--6-------4------------5---------------3s6---|
|--2------------------5------------------5------------6------------5--------|
|--3-------------3-----------------------6------------7---------3-----------|
|--3--------3----------------------------6------------7---------------------|
|--1-------------------------------------4------------5---------------------|

                 A# (2:57)      C (3:01)  3:04                        3:11
|--------------6--------------8------------3---------8--8b10r8--------------|
|--8s10--------6--------------8---------5-----3---------------------6-------|
|--------------7--------------9---------------------------------------------|
|--------------8--------------10--------------------------------------------|
|--------------8--------------10--------------------------------------------|
|--------------6--------------8---------------------------------------------|


|------------------------------------------4--4-----s6-----4--------2s4-----|
|-----4--6--6b8-----------4--4s6--4-----4---------------------7--6----------|
|--5-------------5-----6----------------------------------------------------|
|---------------------------------------------------------------------------|
|---------------------------------------------------------------------------|
|---------------------------------------------------------------------------|

|-----------------2s4-------------------------------------------------------|
|-----7--6-----7----------7--6--4--4----------------------------------------|
|----------------------------------------6--5--3--6-----6p5--5-----s1-------|
|---------------------------------------------------------------------------|
|---------------------------------------------------------------------------|
E-|---------------------------------------------------------------------------|
Добавлено: 02.06.2012
Другие материалы по этой песне:
  • Аккорды и текст

Страница создана 02.06.2012
http://primanota.ru/david-gilmour/lets-get-metaphysical-chords.htm
Привет, Гость.
Предлагаем пройти революционный курс по гитаре.
Подарок от PrimaNota.Ru, забирай!