PrimaNota.ru - самый крупный в мире бесплатный архив песенных текстов, аккордов, табулатур и нот


David Gilmour - A Pocketful Of Stones Live - таба, видео

Регистрация Запомнить меня
Войти через:  Facebook Google Twitter Vk Yandex Mail.ru

David Gilmour - A Pocketful Of Stones Live - таба, видео

Печатать
Просмотров: 192
-- Tab Info--
Song: Pocketful of Stones
Artist: David Gilmour
Album: Remmber That Night, Live at Albet Hall DVD
Original Album: On An Island (2006)


--Sound--
Fender Stratocaster, Bridge Pickup
..::Original Effects::..
    - Distortion: Pete Cornish G-2
          {sustain 100%, tone 10:30, volume 1:00 (o'clock)}
    - Delay: Pete Cornish T.E.S. Tape Echo Simulator (based on Boss DD-2)
	  {Delay time: 680ms)
	  (information taken from Gilmorish, http://www.gilmourish.com/)
    - Any Volume Pedal you can find.

..::Poor Buget Effects::..
- Amp HQ: Gain: 6-7. Treble: 6-7. Middle: 9-10. Bass: 4-5. Reverb: 10.
- Guitar: Tone: 7-8.
- Volum Pedal: just play with the guitar volume nob.

--Intro--
use Volume Pedal, listen to the song to hear where.

e|-----------------------------------------------------------------------------|
B|-------12-----12b13-b13--b13*-------------12----10--10~~~--------------------|
G|-----------------------------------------------------------------------------|
D|-----------------------------------------------------------------------------|
A|-----------------------------------------------------------------------------|
E|-----------------------------------------------------------------------------|
*WHILE bending 12 fret to one tone higher - 13 fret, pick the string 2 time


e|-----------------------------------------------------------------------------|
B|------12---12----12----12b13---b13*-----------------10----8-----8~~~---------|
G|-----------------------------------------------------------------------------|
D|-----------------------------------------------------------------------------|
A|-----------------------------------------------------------------------------|
E|-----------------------------------------------------------------------------|
* again...


e|-----------------------------------------------------------------------------|
B|---12--12---12---12b13--b13*---12p10---12b15------10--10~~~----8---8~~~------|
G|-----------------------------------------------------------------------------|
D|-----------------------------------------------------------------------------|
A|-----------------------------------------------------------------------------|
E|-----------------------------------------------------------------------------|
* and again...

--Solo--
E||------------------------------------------------------------|
B||------------------------------------------------------------|
G||--10---------------10b11--8---10------10-11-11b13-----------|
D||------------------------------------------------------------|
A||------------------------------------------------------------|
E||------------------------------------------------------------|


----------------------------------------------------------------------------------|
---------------------------------------------------------10---13--13--------------|
--11---10p8--10-10b11--8-10-----------10------------------------------------------|
----------------------------------------------------------------------------------|
----------------------------------------------------------------------------------|
----------------------------------------------------------------------------------|

-------------------------------------------------------------------|
--13b14-12-13------------------13h--14--14b16-b16b16*--------14-13-|
-------------------------------------------------------------------|
-------------------------------------------------------------------|
-------------------------------------------------------------------|
-------------------------------------------------------------------|
*While bending 14 fret to one tune higher - 16 fret, pick the string 3 time

---------------------------------13----------------------13-------------------14\3/17----|
------------11--13--13b14-------------13b14*------------13b14*---------------------------|
-----------------------------------------------------------------------------------------|
-----------------------------------------------------------------------------------------|
-----------------------------------------------------------------------------------------|
-----------------------------------------------------------------------------------------|
*While bending 13fret to half tune higher - 14 fret, pick the 13 fret

--17--17--17--17--18--20--20b21----20---18----17\--------------|
---------------------------------------------------------------|
---------------------------------------------------------------|
---------------------------------------------------------------|
---------------------------------------------------------------|
---------------------------------------------------------------|

-------------------------------------------------------------------------|
--------------------------------------------11---/14--13L11--11----------|
----------8--10--10b11--10p8---------------------------------------------|
-------------------------------------------------------------------------|
-------------------------------------------------------------------------|
-------------------------------------------------------------------------|

----------------------------------------------------------------------------|
--9--11--{7-9---------------------------------------------------------------|
---------------8-10-6-7h8-5-7h8--5------------------------------------------|
----------------------------------------------------------6--8b**---6-------|
-----------------------------------------------8}-----8---------------------|
----------------------------------------------------------------------------|
*{fast part} **1/4 tune band

---------------------------------------------------------|
------------------------------10h-11-11----------11-13---|
--------------------/10--13------------------------------|
---------------------------------------------------------|
---------------------------------------------------------|
---------------------------------------------------------|

-------------------------------13-------------------------------|
--13--------11-13-13b14----------11-----------------------------|
----------------------------------------------------------------|
----------------------------------------------------------------|
----------------------------------------------------------------|
----------------------------------------------------------------|

--------------------------------------------------------------------------|
11--13b14--13-------------------------------------------------------------|
-----------------------13-13-13--10--------10b12---b12~~~~----------------|
--------------------------------------------------------------------------|
--------------------------------------------------------------------------|
--------------------------------------------------------------------------|


Tabbed by YR22
Email: Yr22@walla.co.il

Enjoy, and Good-luck.
Добавлено: 10.04.2012
Другие материалы по этой песне:
  • Аккорды и текст

Страница создана 10.04.2012
http://primanota.ru/david-gilmour/a-pocketful-of-stones-live-chords.htm
Привет, Гость.
Предлагаем пройти революционный курс по гитаре.
Подарок от PrimaNota.Ru, забирай!