PrimaNota.ru - самый крупный в мире бесплатный архив песенных текстов, аккордов, табулатур и нот


David Ford - Perfect Soul - таба, видео

Регистрация Запомнить меня
Войти через:  Facebook Google Twitter Vk Yandex Mail.ru

David Ford - Perfect Soul - таба, видео

Печатать
Просмотров: 100
Artist - David Ford
Track - Perfect Soul
Album - Charge
Tabbed By - Skunkwaffle


Intro riff
E|------------------|
B|------5-7p5-------|
G|--/5--------7p5---|
D|------------------|
A|------------------|
E|------------------|


Main chord progression played during the verses and choruses

    C                         Am                      
e|----------x-x------------|-----5--5-x-x------------|
B|--5--5--5-x-x------------|-----5--5-x-x------------|
G|--5--5--5-x-x--5h7--5h7--|-----5--5-x-x--5h7--5h7--|
D|--5--5--5-x-x--5----5----|--7--7--7-x-x--5----5----|
A|--3--3--3-x-x------------|--7--7--7-x-x------------|
E|-------------------------|--5--5--5-x-x------------|

    G                           F        G
e|-----3--3-x-x--3----3-x-x--|--1---1--1-3--3--3-3--|
B|-----3--3-x-x--3----3-x-x--|--1---1--1-3--3--3-3--|
G|--4--4--4-x-x--3h4--4-x-x--|--2---2--2-4--4--4-4--|
D|--5--5--5-x-x--5----5-x-x--|--3---3--3-5--5--5-5--|
A|--5--5--5-x-x--5------x-x--|--3---3--3-5--5--5-5--|
E|--3--3--3-x-x--3------x-x--|--1---1--1-3--3--3-3--|

    C                         Am                      
e|----------x-x------------|-----5--5-x-x------------|
B|--5--5--5-x-x------------|-----5--5-x-x------------|
G|--5--5--5-x-x--5h7--5h7--|-----5--5-x-x--5h7--5h7--|
D|--5--5--5-x-x--5----5----|--7--7--7-x-x--5----5----|
A|--3--3--3-x-x------------|--7--7--7-x-x------------|
E|-------------------------|--5--5--5-x-x------------|

    G                           F        E
e|-----3--3-x-x--3----3-x-x--|--1---1--1------------|
B|-----3--3-x-x--3----3-x-x--|--1---1--1------------|
G|--4--4--4-x-x--3h4--4-x-x--|--2---2--2-1--1--1-1--|
D|--5--5--5-x-x--5----5-x-x--|--3---3--3-2--2--2-2--|
A|--5--5--5-x-x--5------x-x--|--3---3--3-2--2--2-2--|
E|--3--3--3-x-x--3------x-x--|--1---1--1-0--0--0-0--|


Prechorus
    F                 F#    G              Gm   F#  
e|--1--1--1-x-x--1-1--2--|--3--3--3-x-x--3-3----2--|
B|--1--1--1-x-x--1-1--2--|--3--3--3-x-x--3-3----2--|
G|--2--2--2-x-x--2-2--3--|--4--4--4-x-x--4-3h4--3--|
D|--3--3--3-x-x--3-3--4--|--5--5--5-x-x--5-5----4--|
A|--3--3--3-x-x--3-3--4--|--5--5--5-x-x--5-5----4--|
E|--1--1--1-x-x--1-1--2--|--3--3--3-x-x--3-3----2--|

    F                 F#    G         Intro riff again
e|--1--1--1-x-x--1-1--2--|--3--3--3--|----------------|
B|--1--1--1-x-x--1-1--2--|--3--3--3--|-----5-7p5------|
G|--2--2--2-x-x--2-2--3--|--4--4--4--|--/5-------7p5--|
D|--3--3--3-x-x--3-3--4--|--5--5--5--|----------------|
A|--3--3--3-x-x--3-3--4--|--5--5--5--|----------------|
E|--1--1--1-x-x--1-1--2--|--3--3--3--|----------------|

During the verses, pre-choruses, and choruses, the second guitar plays
the same chords in open position without the hammer-ons or intro riff.


VERSE 1:

C                               Am
If you crave for romance I will show up bearing flowers
    G                                   F                        G
and if you need a good listener I could hear you talk for hours
             C                          Am
If you're in need of something stronger I will be your man
           G                                             F                E
and if you want somebody just to make the effort I'll do everything I can



PRE-CHORUS 1: (note the F comes a beat before the singing)

F                             F#   G
    Just don't go pinning all your hopes down on me
Gm  F#          F
    cause i can make you a pretty promise girl
           F# G
but that's no guarantee.



CHORUS:

      C                    Am
Cause I'm no perfect soul 
      G                               F G
These days I'm rolling out of control
    C                      Am
but all I know to be true
   G                             F E
is I got good intentions for you



VERSE 2:

   C                     Am 
So if you need a cleaner I'll take out the trash
    G                                        F                   G
and if you're short on money girl well I can spare a little cash
           C                                  Am                         
and if you cannot hold your liquor well honey I'll hold back your hair
   G                                             F                        E
If all you need is some distraction girl well hey what's that over there



PRE-CHORUS 2:

F                             F# G   
    I swear you'll never find me whoring around
Gm  F#     F                                    F#  G
    well I know there's plenty other ways that I can let you down



CHORUS:

      C                    Am
Cause I'm no perfect soul 
      G                               F G
These days I'm rolling out of control
    C                      Am
but all I know to be true
   G                             F E
is I got good intentions for you



BRIDGE: (Second guitar plays the lead pre-chorus part while the lead plays this)

Dm                                        G
    So if you need a dancing partner I'll bust out some awkward moves
          Dm                            G
And if you settle for some loser girl I sure know how to lose



CHORUS: (Second guitar does not play the first two lines)

      C                    Am
Cause I'm no perfect soul 
      G                              F G
These days I'm mostly out of control
    C                      Am
but all I know to be true
      G                                F       G
see I got these good intentions for you good intentions for you



CHORUS:

C                 Am
    I'm no perfect soul
      G                         F          G
these days well that's just the way I roll
    C                     Am
and all I know to be true
          G                
you see I got these good intentions 
           F                G                   C
I got these good intentions good intentions for you
              Am
I'm no perfect soul
      G                   F             G
these days these days I'm outta control
    C                Am
but all I know to be true
   G                         F
is I got good intentions for you

(The songs fades out on the record, but in live performances he ends on an open E)
Добавлено: 24.01.2014
Другие материалы по этой песне:
  • Аккорды и текст

Страница создана 24.01.2014
http://primanota.ru/david-ford/perfect-soul-chords.htm
Привет, Гость.
Предлагаем пройти революционный курс по гитаре.
Подарок от PrimaNota.Ru, забирай!