PrimaNota.ru - самый крупный в мире бесплатный архив песенных текстов, аккордов, табулатур и нот


David Fonseca - What Life Is For - таба, видео

Регистрация Запомнить меня
Войти через:  Facebook Google Twitter Vk Yandex Mail.ru

David Fonseca - What Life Is For - таба, видео

Печатать
Просмотров: 47
(/) Slide Up  (\) Slide Down  (h) Hammer On  (p) Pull Off  (b) Bend (r) Release (v) Vibrato

Stave 1:

E|-----------------------------------------------------------------------------
B|--12--13--12--10----------------------12--13--12--10-------------------------
G|------------------12--10--12--14--12------------------12--10--12--10--9------
D|-------------------------------------------------------------------------10--
A|-----------------------------------------------------------------------------
E|-----------------------------------------------------------------------------

Stave 2:

E|-----------------------------------------------------------------------------
B|--12--13--12--10----------------------12--13--12--10-------------------------
G|------------------12--10--12--14--12------------------12--10--12--10--9------
D|-------------------------------------------------------------------------10--
A|-----------------------------------------------------------------------------
E|-----------------------------------------------------------------------------

Stave 3:

E|--12--13--13--12--10-------------------------------------------------------------
B|----------------------13--12--13--12--10--12--13--13--12--10---------------------
G|--------------------------------------------------------------12--10--12--10--9--
D|---------------------------------------------------------------------------------
A|---------------------------------------------------------------------------------
E|---------------------------------------------------------------------------------

Stave 4:

E|--12--13--13--12--10--------------10--------------
B|----------------------13--12--13------13--12--13--
G|--------------------------------------------------
D|--------------------------------------------------
A|--------------------------------------------------
E|--------------------------------------------------
Добавлено: 28.05.2016
Другие материалы по этой песне:
  • Аккорды и текст

Страница создана 28.05.2016
http://primanota.ru/david-fonseca/what-life-is-for-chords.htm
Привет, Гость.
Предлагаем пройти революционный курс по гитаре.
Подарок от PrimaNota.Ru, забирай!