PrimaNota.ru - самый крупный в мире бесплатный архив песенных текстов, аккордов, табулатур и нот


David Coverdale - Pride And Joy (feat. Jimmy Page) - текст песни, таба, видео

Регистрация Запомнить меня
Войти через:  Facebook Google Twitter Vk Yandex Mail.ru

David Coverdale - Pride And Joy (feat. Jimmy Page) - текст песни, таба, видео

Печатать
Просмотров: 144
Авторы музыки: Jimmy Page, David Coverdale

-------------------------------------------------------------------------------
                             PRIDE AND JOY - Coverdale Page
-------------------------------------------------------------------------------
Tabbed by: Jon B
Email: felagund50@hotmail.com

Tuning: Standard

The main riff is played at a fast clip, and the fingers should never change position.
barre the B and G strings with the 2nd finger (middle) on the 7th fret. Next, place your
finger (index) on the e string at the 5th fret. Then place your 3rd finger (ring) on the 
string at the 7th fret. Lastly, place your 4th finger (pinky) on the e string at the 8th
Using PIMA notation, here's how the fingers should lie on the strings:

e|-------------------5P--7M--8A----------------------------------------------|
B|-----------------------7I--------------------------------------------------|
G|-----------------------7I--------------------------------------------------|
D|---------------------------------------------------------------------------|
A|---------------------------------------------------------------------------|
E|---------------------------------------------------------------------------|

To play the riff, simply lift and replace your 3rd and 4th fingers on the e string as noted.

This is my first tab, so I'm sure some things aren't right. Let me know if you have any
or comments. Thanks!

MAIN RIFF
                          |play 6x|
    v                           v
e||-8-8-8-7--5--7--5--7--8-8-8-|8-8-8-7--5--7--5-5-5-5-5-5-5--|
B||-7-7-7-7--7--7--7--7--7-7-7-|7-7-7-7--7--7--7-7-7-7-7-7-7--|
G||-7-7-7-7--7--7--7--7--7-7-7-|7-7-7-7--7--7--7-7-7-7-7-7-7-o|
D||-0--------------------------|0----------------------------o|
A||-0--------------------------|0-----------------------------|
E||-X--------------------------|X-----------------------------|

   v              v       v        v           v      v            v   v
e|-5-5-5-5-5--5---3-3-3---8--8----|10-10-10-10-10--10-10--10-10-10-10--10-|
B|-5-5-5-5-5--5---3-3-3---7--7----|10-10-10-10-10--10-10--10-10-10-10--10-|
G|-6-6-6-6-6--6---4-4-4---7--7----|11-11-11-11-11--11-11--11-11-11-11--11-|
D|--------------------------------|---------------------------------------|
A|--------------------------------|---------------------------------------|
E|--------------------------------|---------------------------------------|

   v              v       v         v(let ring)
e|-5-5-5-5-5--5---3-3-3---8-8-8---|-10------------------------------------|
B|-5-5-5-5-5--5---3-3-3---7-7-7---|-10------------------------------------|
G|-6-6-6-6-6--6---4-4-4---7-7-7---|-11------------------------------------|
D|--------------------------------|---------------------------------------|
A|--------------------------------|---------------------------------------|
E|--------------------------------|---------------------------------------|

                        |play 3x|
                     v  v  v                       v
e|---------------|-------------------------------|---------------------------------|
B|---------------|-------------------------------|---------------------------------|
G|---------------|-o----------------------------o|---------------------------------|
D|---------------|-o-7---7---7------------------o|-7-7-7---------------------------|
A|-------3-------|---7---7---7----------3--------|-7-7-7-------------------3-------|
E|-0h3h5---5p3h5-|---5---5---5----0h3h5---5p3h5--|-5-5-5-------------0h3h5---5p3h5-|

           |play 7x|
     v   v   v
e|-------------------------------|---------------------|
B|-------------------------------|---------------------|
G|-o----------------------------o|---------------------|
D|-o-7---7---7------------------o|-7-7-7-7---7-7-7-7---|
A|---7---7---7----------3--------|-7-7-7-7---7-7-7-7---|
E|---5---5---5----0h3h5---5p3h5--|-5-5-5-5---5-5-5-5---|

                   |play 3x|
        v               v              v  v         v
e|-------------------------------------------|----------------------------------|
B|-------------------------------------------|----------------------------------|
G|-o-13/14-14-13-14--13/14-14-13-14---77--7-o|--13/14-14-13-14------------------|
D|-o-11/12-12-11-12--11/12-12-11-12---77--7-o|--11/12-12-11-12------------------|
A|------------------------------------55--5--|--------------------------3-------|
E|-------------------------------------------|--------------------0h3h5---5p3h5-|

            |play 7x|
     v   v   v
e|-------------------------------|----------------------|
B|-------------------------------|----------------------|
G|-o----------------------------o|----------------------|
D|-o-7---7---7------------------o|-7-7-7-7---7-7-7-7----|
A|---7---7---7----------3--------|-7-7-7-7---7-7-7-7----|
E|---5---5---5----0h3h5---5p3h5--|-5-5-5-5---5-5-5-5----|

                          |play 4x|
    v                           v
e|--8-8-8-7--5--7--5--7--8-8-8-|8-8-8-7--5--7--5-5-5-5-5-5-5--|
B|--7-7-7-7--7--7--7--7--7-7-7-|7-7-7-7--7--7--7-7-7-7-7-7-7--|
G|o-7-7-7-7--7--7--7--7--7-7-7-|7-7-7-7--7--7--7-7-7-7-7-7-7-o|
D|o-0--------------------------|0----------------------------o|
A|--0--------------------------|0-----------------------------|
E|--X--------------------------|X-----------------------------|

   v              v       v        v           v      v            v   v
e|-5-5-5-5-5--5---3-3-3---8--8----|10-10-10-10-10--10-10--10-10-10-10--10-|
B|-5-5-5-5-5--5---3-3-3---7--7----|10-10-10-10-10--10-10--10-10-10-10--10-|
G|-6-6-6-6-6--6---4-4-4---7--7----|11-11-11-11-11--11-11--11-11-11-11--11-|
D|--------------------------------|---------------------------------------|
A|--------------------------------|---------------------------------------|
E|--------------------------------|---------------------------------------|

   v              v       v         v
e|-5-5-5-5-5--5---3-3-3---8-8-8---|-10----------------------------------------|
B|-5-5-5-5-5--5---3-3-3---7-7-7---|-10----------------------------------------|
G|-6-6-6-6-6--6---4-4-4---7-7-7---|-11-13/14-14-13-14--13/14-14-13-14---------|
D|--------------------------------|----11/12-12-11-12--11/12-12-11-12---77-7--|
A|--------------------------------|-------------------------------------77-7--|
E|--------------------------------|-------------------------------------55-5--|


                   |play 2x|
        v               v              v  v         v
e|-------------------------------------------|----------------------------------|
B|-------------------------------------------|----------------------------------|
G|-o-13/14-14-13-14--13/14-14-13-14---77--7-o|--13/14-14-13-14------------------|
D|-o-11/12-12-11-12--11/12-12-11-12---77--7-o|--11/12-12-11-12------------------|
A|------------------------------------55--5--|--------------------------3-------|
E|-------------------------------------------|--------------------0h3h5---5p3h5-|


            |play 4x|
     v   v   v                     v   v   v     v
e|-------------------------------|------------------|
B|-------------------------------|------------------|
G|-o----------------------------o|------------------|
D|-o-7---7---7------------------o|-7---7---7-----8--|
A|---7---7---7----------3--------|-7---7---7-----8--|
E|---5---5---5----0h3h5---5p3h5--|-5---5---5-----6--|

   v   v   v                    v   v   v     v
e|----------------------------|------------------------------|
B|----------------------------|------------------------------|
G|----------------------------|--------------------------5---|
D|-7---7---7------------------|-7---7---7-----8--------------|
A|-7---7---7----------3-------|-7---7---7-----8----0h3h5---5-|
E|-5---5---5----0h3h5---5p3h5-|-5---5---5-----6--------------|

         |play 2x|
    v   v   v                 v   v   v
e|--------------------------|---------5----|
B|--------------------------|---------7----|
G|o-5---3---2----------5---o|-5---3---7----|
D|o-5---3---2--------------o|-5---3---7----|
A|--3---1---0----0h3h5---5--|-3---1---5----|
E|--------------------------|---------X----|
                                      ?
                           |Main Riff starts again here|

                          |play 6x|
   v                           v
e|-8-8-8-7--5--7--5--7--8-8-8-|8-8-8-7--5--7--5-5-5-5-5-5-5--|
B|-7-7-7-7--7--7--7--7--7-7-7-|7-7-7-7--7--7--7-7-7-7-7-7-7--|
G|-7-7-7-7--7--7--7--7--7-7-7-|7-7-7-7--7--7--7-7-7-7-7-7-7-o|
D|-0--------------------------|0----------------------------o|
A|-0--------------------------|0-----------------------------|
E|-X--------------------------|X-----------------------------|

                                |play 3x|
    v              v       v        v           v      v            v   v
e|--5-5-5-5-5--5---3-3-3---8--8----|10-10-10-10-10--10-10--10-10-10-10--10--|
B|--5-5-5-5-5--5---3-3-3---7--7----|10-10-10-10-10--10-10--10-10-10-10--10--|
G|o-6-6-6-6-6--6---4-4-4---7--7----|11-11-11-11-11--11-11--11-11-11-11--11-o|
D|o--------------------------------|---------------------------------------o|
A|---------------------------------|----------------------------------------|
E|---------------------------------|----------------------------------------|

               v   v   v                                  v
e|---------------------5-------------------|-----------------|-------------------------|
B|---------------------7-------------------|-----------------|-------------------------|
G|-------5-----5---3---7-----------5-------|-----------------|-------------------------|
D|-------------5---3---7-------------------|-7---7---7----8--|-7---7---7----7/8-7/8\7--|
A|-0h3h5---5---3---1---5-----0h3h5---5p3h5-|-7---7---7----8--|-7---7---7----7/8-7/8\7--|
E|---------------------X-------------------|-5---5---5----6--|-5---5---5----5/6-5/6\5--|

                v     vvvv
e|-----------------------------||
B|-----------------------------||
G|-----------------------------||
D|-7---7---7----8-----7777-----||
A|-7---7---7----8-----7777-----||
E|-5---5---5----6-----5555-----||

| /  slide up
| \  slide down
| h  hammer-on
| p  pull-off
| ~  vibrato
| +  harmonic
| x  Mute note
===============================================================================
Добавлено: 18.03.2016
Другие материалы по этой песне:
  • Аккорды и текст

Страница создана 11.03.2012
http://primanota.ru/david-coverdale/pride-and-joy-chords.htm
Привет, Гость.
Предлагаем пройти революционный курс по гитаре.
Подарок от PrimaNota.Ru, забирай!