PrimaNota.ru - самый крупный в мире бесплатный архив песенных текстов, аккордов, табулатур и нот


David Choi - Always Hurt - таба, видео

Регистрация Запомнить меня
Войти через:  Facebook Google Twitter Vk Yandex Mail.ru

David Choi - Always Hurt - таба, видео

Печатать
Просмотров: 89
-------------------------------------------------------------------------------
                             Always Hurt - David Choi
-------------------------------------------------------------------------------
Tabbed by:nojeremy
E-mail:jeremyyno@gmail.com
Not 100% accurate, but pretty close, I'd say. 
As a note, rhythms vary between verses and repetitions of chorus' and prechorus'
Listen to the song for timing and strum patterns.

Order of the song is as follows: 
intro
verse 1
prechorus
chorus
verse 2
prechorus
chorus x2
bridge
chorus x2

Tuning:standard


Intro:     
e|--------------------------------------------------------------------------|
B|-0h1---8--7--5h6----------4-----------------------------------------------|
G|---0---7--6--5------5--4--4-----------------------------------------------|
D|---2---9--8--5h7----3--3--3-----------------------------------------------|
A|---3---7--6--5------5--5--------------------------------------------------|
E|-------------------3---3--3-----------------------------------------------|


Verse:Repeat as necessary 
e|--------------------------------------------------------------------------|
B|---1---8--7--5h6----------------------------------------------------------|
G|---0---7--6--5------5--4--------------------------------------------------|
D|---2---9--8--5h7----3--3--------------------------------------------------|
A|---3---7--6--5------5--5--------------------------------------------------|
E|--------------------3--3--------------------------------------------------|


Prechorus:
e|--------------------------------------------------------------------------|
B|---5-x-5---5-x-5---5-x-5--------------------------------------------------|
G|---5-x-5---5-x-5---5-x-5---5-4--5-4---------------------------------------|
D|---5-x-5---4-x-4---3-x-3---3-3--3-3---------------------------------------|
A|---------------------------5-5--5-5---------------------------------------|
E|---5-x-5--5--x-5---5-x-5---3-3--3-3---------------------------------------|


Chorus going into verse/bridge/ending:
e|-------1-------1--1-------------------------------------------------------|
B|---1---1---1---1--1----5---7---6---8-10-----------------------------------|
G|---0---1---0---1--1----5---5---5---7-9------------------------------------|
D|---2---3---2---3--3-5--5---7---7---9-10-----------------------------------|
A|---3---3---3---3--3-5------5---5---7-8------------------------------------|
E|-------1-------1--1-3--5--------------------------------------------------|


Chorus going into Chorus (chorusx2):Repeat as necessary
e|-------1-------1--1-------------------------------------------------------|
B|---1---1---1---1--1----5---7---6------------------------------------------|
G|---0---1---0---1--1----5---5---5---5-4------------------------------------|
D|---2---3---2---3--3-5--5---7---7---3-3------------------------------------|
A|---3---3---3---3--3-5------5---5---5-5------------------------------------|
E|-------1-------1--1-3--5-----------3-3------------------------------------|


Bridge:
e|---0---0------------------------------------------------------------------|
B|---0---1---7---6----------------------------------------------------------|
G|---0---0---5---5---5-4----------------------------------------------------|
D|---2---2---7---7---3-3----------------------------------------------------|
A|---2---0---5---5---5-5----------------------------------------------------|
E|---0---------------3-3----------------------------------------------------|



************************************

| /   slide up
| \   slide down
| h   hammer-on
| p   pull-off
| ~   vibrato
| +   harmonic
| x   Mute note
| b   Bend
| pb  Pre-bend
| br  Bend release
| pbr Pre-bend release
| brb Bend release bend

************************************
Добавлено: 26.09.2013
Другие материалы по этой песне:
  • Аккорды и текст

Страница создана 26.09.2013
http://primanota.ru/david-choi/always-hurt-chords.htm
Привет, Гость.
Предлагаем пройти революционный курс по гитаре.
Подарок от PrimaNota.Ru, забирай!