PrimaNota.ru - самый крупный в мире бесплатный архив песенных текстов, аккордов, табулатур и нот


David Brent - Freelove Freeway - таба, видео

Регистрация Запомнить меня
Войти через:  Facebook Google Twitter Vk Yandex Mail.ru

David Brent - Freelove Freeway - таба, видео

Печатать
Просмотров: 174
Уроки эстрадного вокала в Санкт-Петербурге
-------------------------------------------------------------------------------
         Free Love Freeway - David Brent (featuring Noel Gallagher)
-------------------------------------------------------------------------------

Tabbed by: Drew Davie
E-mail: dd326@bath.ac.uk

Tuning: Standard

Chords used:

       EADGBe
C     (x32010)  
F     (x3321x)
Am    (x02210)
G     (3x0033)


Verse 1 (Palm muted):
C       F       Am      G
Pretty girl on the hood of a Cadillac, yeah
C       F       Am      G
She's broken down on Freeway 9
C       F       Am      G
I take a look, I get her engine started,
C       F       Am      G
Leave her purring and I roll on by. Bye, bye

Chorus (Palm muted):
C       F       Am      G
Free love on the free love freeway, the
C       F       Am      G
Love is free and the freeway's long, I got some
C       F       Am      G
Hot love on the hot love highway, ain't
C       F       Am      G
Going home 'cause my baby's gone (she's dead)

(Strumming chords now)

C       F       Am      G         x2

Verse 2:
C       F       Am      G
A little while later, see a Senorita,
C       F       Am      G
She's caught a flat trying to make it home.
C       F       Am      G
She says, "Por favor, can you pump me up?"
C       F       Am      G
I said, "Muchos gracias, and adios. Bye, bye."

Chorus 

Solo:


  
e|---------------------------------------------------------------------------|
B|---------------------------------------------8-13-10-15b17-15-13-----------|
G|-7b9-7-5-------------------------------5-7-9---------------------14--------|
D|---------7-5-----------------------5-7-------------------------------------|
A|-------------7-5-3-5b7-5-3---3-5-7-----------------------------------------|
E|---------------------------5-----------------------------------------------|

e|------------12h13p12-------------------15b17r15-13-12-13-12----------------|
B|-15b17-(16)----------13---15b17-15-13--------------------------------------|
G|-----------------------14--------------------------------------------------|
D|---------------------------------------------------------------------------|
A|---------------------------------------------------------------------------|
E|---------------------------------------------------------------------------|

e|-12-13-12-13~--13-12-13-15~--15-13-12-13~--12~-----------------------------|
B|----------------------------------------------13---------------------------|
G|-------------------------------------------------12--10-9-10-9-------------|
D|---------------------------------------------------------------------------|
A|---------------------------------------------------------------------------|
E|---------------------------------------------------------------------------|

(On the second note of the second section play the 16th fret with the pinky
 for the F note while still bending)

Verse 3 (Single strums):
C       F       Am      G
Down the road I see a cowboy crying
C       F       Am      G
"Hey buddy, what can I do?"
C       F       Am      G
He says, "I had a good life, had about a thousand women,"
C       F       Am      G
I said, "Why the tears?", he says, " ' Cause none of them was you".

(Strumming again):
C       F       Am      G 

until fade out.



************************************

| /   slide up
| \   slide down
| h   hammer-on
| p   pull-off
| ~   vibrato
| +   harmonic
| x   Mute note
| b   Bend
| pb  Pre-bend
| br  Bend release
| pbr Pre-bend release
| brb Bend release bend

************************************
Добавлено: 28.07.2015
Другие материалы по этой песне:

Страница создана 13.05.2012
http://primanota.ru/david-brent/freelove-freeway-chords.htm
Привет, Гость.
Предлагаем пройти революционный курс по гитаре.
Подарок от PrimaNota.Ru, забирай!