PrimaNota.ru - самый крупный в мире бесплатный архив песенных текстов, аккордов, табулатур и нот


David Brandon - French Lullaby - таба, видео

Регистрация Запомнить меня
Войти через:  Facebook Google Twitter Vk Yandex Mail.ru

David Brandon - French Lullaby - таба, видео

Печатать
Просмотров: 141
Уроки эстрадного вокала в Санкт-Петербурге
French Lullaby 

By David Brandon
Tabbed by John R. Felts 

Part 1
E|--5---0---5-----7---0---7-----8---10--8-----7---0---7------
B|-----------------------------------------------------------
G|----5---5---5-----7---7---7-----9---9---9-----7---7---7----
D|-----------------------------------------------------------
A|--0---------------------------0----------------------------
E|----------------0---------------------------0--------------

                            (1st ending, then repeat whole)*(2nd ending)
--5---0---5-----3---0---s7--|--5---0---5-----3---0---3----|--5-------------|
----------------------------|-----------------------------|------0---0-----|
----5---5---5-----4---4-----|----5---5---5-----4---4---4--|----5---5---5---|
----------------------------|-----------------------------|--------------7-|
--0-------------------------|--0--------------------------|--0-------------|
----------------0-----------|----------------0------------|----------------|

Part 2
E|--5--3---1---0-------0---1---3---0---------------0---1------------
B|-----------------3-------------------3---1---3-----------3---1----
G|-------0---0---0---0---0---0---0---0---0---0---0---0---0---0---0--
D|-----------------------------------------2------------------------
A|-----3-----------------------3-----------------------2------------
E|-----------------3------------------------------------------------

--------------0-----------0-------0--3---1---0-------0---1----
--0---1---3-------1---3-------2------------------3------------
----1---1---1---2---2---2---0---0------0---0---0---0---0---0--
--------------------------------------------------------------
--------------0-----------0----------3------------------------
--0----------------------------------------------3------------

--3---0---3--s5---0---5---5---0---5---7---0---10v-8---0---8---7---0---7---|
--------------------------------------------------------------------------|
----0---0---0---5---5---5---5---5---5---7---7-------9---9---9---7---7---7-|
--------------------------3-----------------------------------------------|
--3-----------0-----------------------------------------------------------|
--------------------------------------0-----------0-----------0-----------|

Repeat Part 1 
*(Slight exception below, add in before playing 2nd ending)

E|--5---0---5---7---0-----------5-----------------|
B|-----------------------(12)-------0---0---------|
G|----5---5---5---7---7-----------5---5---5-------|
D|--3---------------------------------------7-----|
A|------------------------------0-----------------|
E|--------------0---------------------------------|
Добавлено: 31.05.2016
Другие материалы по этой песне:
  • Аккорды и текст

Страница создана 31.05.2016
http://primanota.ru/david-brandon/french-lullaby-chords.htm
Привет, Гость.
Предлагаем пройти революционный курс по гитаре.
Подарок от PrimaNota.Ru, забирай!