PrimaNota.ru - самый крупный в мире бесплатный архив песенных текстов, аккордов, табулатур и нот


David Benjamin - Through Your Eyes - таба, видео

Регистрация Запомнить меня
Войти через:  Facebook Google Twitter Vk Yandex Mail.ru

David Benjamin - Through Your Eyes - таба, видео

Печатать
Просмотров: 21
Capo VII
Onderaan staat de tablature van de diverse tokkels. / beneath the page are some riffs

G    3-2-0-0-0-x-|
C    x-3-2-0-1-x-|
Am7  x-0-2-0-1-0-|
G/B  x-2-0-0-3-0-|
D*   x-5-4-2-3-2-|
Em   0-2-2-0-0-0-|
C/G  3-3-2-0-1-0-|
D/A  5-5-4-0-3-0-|

Intro
|G   |G   |C   |C   | 2x

G                                    C
I looked up, looked up to you in the sky,
                                     G
You smiled down, the sun was in your eyes,
                   C
Those days,
G                               C
So proud, I was as proud as can be,
                              G
Cause I had you watching over me,
                                    C
So glad, that you were there by our side,

Am7            G/B                 C                 G/B
You reply with your brown eyes, so hard to look away,
Am7                 G/B                D*
These were words no one could hear you say

You knew, that you could take on the world,
So cool, nothing you could not do,
Those days, no worries entered your mind,
But years passed, you wouldn't show us your face,
Time flew, I didn't go to your place for a while,

You reply with your brown eyes, so hard to look away,
These were words no one could hear you say

   Em                                          C/G
If I really loved you, why couldn't I find the time,
   Em                                             C/G
To hug and to hold you, and tell you we'd be just fine,
       Em
I look up to you still now, cause you are my brother,
        C/G
You can tell by the nose and our mother and father,
    Em
Now all I can say is,
                        C/G
I'm missing you all the time

- intro -

You reply with your brown eyes, so hard to look away,
These were words no one could hear you say

-strumming-
If I really loved you, why couldn't I find the time,
To hug and to hold you, and tell you we'd be just fine,
I look up to you still now, cause you are my brother,
You can tell by the nose and our mother and father,
Now all I can say is,
I'm missing you all the time

                  C/G            D/A     Em
Through your very eyes,
          C/G            D/A     Em
I look to skies
                  C/G            D/A     Em
Through your very eyes,
                  C/G            D/A     Em
Through your very eyes


intro

   G
E---------------------------------------|
B----------------------------------0----|
G-------0h2----2----------0h2----2------|
D-----------0-----------------0---------|
A----2------------------2---------------|
E--3-----------------3------------------|


   C
E---------------------------------------|
B----------------------------------3----|
G-------0h2----2----------0h2----2------|
D-----2------0---------2------0---------|
A--3-----------------3------------------|
E---------------------------------------|


   G
E---------------------------------------|
B--0-------------------------------0----|
G-------0h2----2----------0h2----2------|
D-----------0-----------------0---------|
A----2------------------2---------------|
E--3-----------------3------------------|

   C
E---------------------------------------|
B---------------------------------------|
G-------0h2----0--------0----0----------|
D-----2------0-------------2------------|
A--3------------------3-----------------|
E---------------------------------------|

Pre-chorus

  Am7                      G/B
E--------------------------------------------|
B---------1---------1------------3-------3---|
G-------0-------0--------------0-----0-------|
D-----2-------2---2----------0-----0---0-----|
A--0-----------------------2-----------------|
E--------------------------------------------|

  C                        G/B
E--------------------------------------------|
B---------1---------1------------3-------3---|
G-------0-------0--------------0-----0-------|
D-----2-------2---2----------0-----0---0-----|
A--3-----------------------2-----------------|
E--------------------------------------------|


  Am7                      G/B
E--------------------------------------------|
B---------1---------1------------3-------3---|
G-------0-------0--------------0-----0-------|
D-----2-------2---2----------0-----0---0-----|
A--0-----------------------2-----------------|
E--------------------------------------------|

   D
E--------------------------------------------|
B---------3---------3------------3-------3---|
G-------2-------2--------------2-----2-------|
D-----4-------4---4----------4-----4---4-----|
A--5-----------------------5-----------------|
E--------------------------------------------|

 Refrein (2x)

E-----------------------------------------|
B---------0--------0--------0--------0----|
G-------0--------0--------0--------0------|
D-----2--------2--------2--------2--------|
A------------2-----------------2----------|
E--0------------------0-------------------|

  C/G
E------------------------------------------|
B---------1--------1--------1--------1-----|
G-------0--------0--------0--------0-------|
D-----2--------2--------2--------2---------|
A---3-----------------3--------------------|
E------------3-----------------3-----------|
Добавлено: 23.12.2015
Другие материалы по этой песне:
  • Аккорды и текст

Страница создана 23.12.2015
http://primanota.ru/david-benjamin/through-your-eyes-chords.htm
Привет, Гость.
Предлагаем пройти революционный курс по гитаре.
Подарок от PrimaNota.Ru, забирай!