PrimaNota.ru - самый крупный в мире бесплатный архив песенных текстов, аккордов, табулатур и нот


Davi Sacer - Confio Em Ti - аккорды и текст, видео

Регистрация Запомнить меня
Войти через:  Facebook Google Twitter Vk Yandex Mail.ru

Davi Sacer - Confio Em Ti - аккорды и текст, видео

Печатать
Просмотров: 177
Confio Em Ti
Davi Sacer
Confio em Ti
Davi Sacer

Tom: B
                
Intro: G#m7 E9 Bsus2 D#m7 (2x)

           G#m7        Eadd2
Eu não vou mais, olhar atrás
        C#m7           D#m7
O que passou não volta mais
       G#m7          E9
Não temerei, o que virá
         C#m7           F#
Minha esperança está em Deus
     C#m7
Cada lágrima que chorei
     F#9
Cada sonho que perdi
 C#m7                  C#m/E         F#
Coloco aos teus pés, Le_van_ta-me Senhor...


      B     B
Eu confio em ti
B        B       G#m7
Nada poderá me afastar de ti
   F#                       Esus2 E
Tu és a minha fonte meu susten____to
     C#m7   F#
Meu amigo fiel
      B     B
Eu confio em ti
B        B       G#m7
Nada poderá me afastar de ti
   F#                        Esus2 E
Em todo tempo eu sei estás comi____go
    C#m7 F#  G#m7
Meu ami__go, Fiel...

1°Vez : Eadd2 C#m7 D#m7 volta no início...

Solo:  G#m  E  C#m7  F#

(Repete Tudo)

Solo 2x:  G#m  E  C#m7  F#

E|------------------------------------------------------------------------------------------------|
B|---------11-12---12-11-----------------11-12----------11-11/12-----12-12-----12-12/14-----14-14-|
G|-11/13-13--------------13-----11/13-13--------------9----------9-9---------9----------11--------|
D|------------------------------------------------------------------------------------------------|
A|------------------------------------------------------------------------------------------------|
E|------------------------------------------------------------------------------------------------|


E|-----13-----13------13------13-------------------------14-14/16----16-18-18b---------19-21b-----|
B|-15b----15b-----15b-----15b-----15---10-13-10~---13/15----------15----------17-17-17------------|
G|------------------------------------------------------------------------------------------------|
D|------------------------------------------------------------------------------------------------|
A|------------------------------------------------------------------------------------------------|
E|------------------------------------------------------------------------------------------------|

   C#m7
Cada lágrima que chorei
     F#9
Cada sonho que perdi
  C#m7                 E9           F#9
Coloco aos teus pés, coloco aos teus pés...
     C#m7
Cada lágrima que chorei
     F#9
Cada sonho que perdi
 C#m7                  C#m/E         F#
Coloco aos teus pés, le_van_ta-me Senhor

       B
Eu confio...
    C#m7 F#  G#m7     E9 Bsus2 D#m7 G#m7
Meu ami__go, Fiel...
Добавлено: 27.10.2013
Другие материалы по этой песне:
  • Аккорды и текст

Страница создана 27.10.2013
http://primanota.ru/davi-sacer/confio-em-ti-chords.htm
Привет, Гость.
Предлагаем пройти революционный курс по гитаре.
Подарок от PrimaNota.Ru, забирай!